Locked Out

Crowded House

e|---------------------------------------------------------------------|

B|---------------------------------------------------------------------|
G|-------------------------------------------------------------9-9-9-9-| x 2 alone
D|-----------------9-9-9-9-11-11-11-11-----------------9-9-9-9-9-9-9-9-|
A|-7-7-7-7-7-7-7-7-7-7-7-7-7--7--7--7--7-7-7-7-7-7-7-7-7-7-7-7-7-7-7-7-|
E|-5-5-5-5-5-5-5-5---------------------5-5-5-5-5-5-5-5-----------------|
e|---5--5--7--5----4--4--5--4---------|
B|---5--5--5--5----5--5--5--5---------|
G|---6--6--6--6----4--4--4--4---------|
D|---7--7--7--7-----------------------|
A|------------------------------------|
E|------------------------------------|

 BA
And the clouds, they are crying on you
 AE
And the birds are offering up their tunes
 BA
In a shack as remote as a mansion
 C#mG#
you escape into a place where nothing moves

Mark plays
 BA
e|---7--7--7--9--7----5--5--5--7--5------|
B|---7--7--7--7--7----5--5--5--5--5------|
G|---8--8--8--8--8----6--6--6--6--6------|
D|---9--9--9--9--9----7--7--7--7--7------|
A|---------------------------------------|
E|---------------------------------------|


 AE
e|---5--5--5--7--5----0--0--0--0--0------|
B|---5--5--5--5--5----0--0--0--0--0------|
G|---6--6--6--6--6----2--2--2--2--2------|
D|---7--7--7--7--7-----------------------|
A|---------------------------------------|
E|---------------------------------------|


 BA
e|---7--7--7--9--7----5--5--5--7--5------|
B|---7--7--7--7--7----5--5--5--5--5------|
G|---8--8--8--8--8----6--6--6--6--6------|
D|---9--9--9--9--9----7--7--7--7--7------|
A|---------------------------------------|
E|---------------------------------------|


 C#mG#
e|---4--4--4--6----4--4--4--4--|
B|---5--5--5--5----4--4--4--4--|
G|---6--6--6--6----5--5--5--5--|
D|---6--6--6--6----6--6--6--6--|
A|---4--4--4--4----6--6--6--6--|
E|-----------------4--4--4--4--|


SOLO:
e|----------------------------------------|
B|--5^7-5--3------------------------------|
G|-------------4^6-4--2--0----------------|
D|--------------------------2--2--2--2----|
A|----------------------------------------|
E|--------------------------------------0-|

repeat above then

e|-------------------------------------------------|
B|--3----3----3----3----3----3---3----3---3--3--3--|
G|--2----2----2----2----2----2---2----2---2--2--2--|
D|--0h2--0h2--0h2--0h2--2^4--2---0h2--2^4-2--0--2--|
A|-------------------------------------------------|
E|-------------------------------------------------|
e|---------------------------------------|
B|--5--/7--/9--/12--/15--/17-------------|
G|--4---6---8---11---14---16-------------|
D|---------------------------------------|
A|---------------------------------------|
E|---------------------------------------|


Just pick this next bit randomly.

 DC#m
 Twin valleys shine in the morning sun
 DC#m
 I send a message out to my only one

Ending

e|---------------------------------|
B|---5-5-5-5-5-5-5-5-5-5-5-5-5-5-5-|
G|---------------------------------|
D|---------------------------------|
A|---------------------------------|
E|---------------------------------|
e|---------------------------------|
B|---5-5-5-5-5-5-5-5-5-5-5-5-5-5-5-|
G|---------------------------------|
D|---------------------------------|
A|---------------------------------|
E|---------------------------------|
e|---------------------------------|
B|---5--/7--/9--/12--/17-17-17-17--|
G|---------------------------------|
D|---------------------------------|
A|---------------------------------|
E|---------------------------------|
e|---------------------------------|
B|---17-17-17-17-17-17-17-17-17-17-|
G|---------------------------------|
D|---------------------------------|
A|---------------------------------|
E|---------------------------------|
e|---------------------------------|
B|---17-17-17-17-17-17-17-17-17-17-|
G|---------------------------------|
D|---------------------------------|
A|---------------------------------|
E|---------------------------------|
e|-------------------------------------------------|
B|--3----3----3----3----3----3---3----3---3--3--3--|
G|--2----2----2----2----2----2---2----2---2--2--2--|
D|--0h2--0h2--0h2--0h2--2^4--2---0h2--2^4-2--0--2--|
A|-------------------------------------------------|
E|-------------------------------------------------|
e|-----------------------------------|
B|-------9----9----------------------|
G|-------9----9----------------------|
D|-------9----9----------------------|
A|-------7----7----------------------|
E|-----------------------------------|				



A B C#m D E G#
variations - click chord images
Transpose chords:
Tuning:
Cool service:
View: Size:
A  A  A
Rating:
Layout:
  • Currently 2.3/5 Stars.
  • 1
  • 2
  • 3
  • 4
  • 5
 
Accuracy:
  • Currently 3.3/5 Stars.
  • 1
  • 2
  • 3
  • 4
  • 5
 
click stars to rate
Chordie recommends:
Check out these online guitar lessons
Songbook:
Login to add this song to your songbook
Support the artist
Preview/buy this song
MSN Music
Why this non-profit ad?

 
login to add comments/video/corrections