Guitar Tabs, Chords and Lyrics


Prayers For Rain   Cure









  Prayers for Rain    by the CURE

----------------|---------------------------|
----------------|---------------------------|
----------------|---------------------------|
----2-------2---|-----0---0---0-------------|
-0----0--0----0-|-3-3---3---3---3-----------|
----------------|---------------------------|

Repeat  4Xs

----------------|---------------------------|
----------------|---------------------------|
----2-------2---|---------------------------|
----------------|-----0---0---0-------------|
-0----0--0----0-|-3-3---3---3---3-----------|
----------------|---------------------------|
Repeat 3Xs


------------------|---------5----3-----------|
------------------|-5----3-------------------|
-2--2--2--2--4--5-|--------------------------|
-----play---------|--------------------------|
-T W I C E--------|--------------------------|
------------------|--------------------------|

5-5-5-5-7-8-|-12---10---17---15--|--13--12-|
------------|--------------------|---------|
2-2-2-2-4-5-|--9----7---14---12--|--10---9-|
------------|--------------------|---------|
-Play-------|--------------------|---------|
---TWICE----|--------------------|---------|

----3---3---3-5-|--5--5----------------------|
--5---5---5-----|----------------------------|
----------------|----------------------------|
----------------|------REPEAT TIL------------|
----------------|----------------Lyrics------|
----------------|----------------------------|



Important: The song above is NOT stored on the Chordie server. The original song is hosted at www.guitaretab.com. Chordie works as a search engine and provides on-the-fly formatting. Chordie does not index songs against artists'/composers' will. To remove this song please click here.

This song is displayed as text-only. Transposing and tuning is only available for chordpro-songs.

Login - add to songbook

Rating click stars to rate

Layout
Accuracy

SHARE PAGE  




You need to log in to post comments