Guitar Tabs, Chords and Lyrics


Jamie Acoustic   Dashboard Confessional



tab by: ^pEteR^
any comments, sugestions, recomendations, & insults?
email me: em0_dirk@yahoo.com.ph
friendster: ironicalbliss@yahoo.com & em0_dirk@yahoo.com.ph

this tab is for my best friend krisa(she like the song!)^^..
this tab should be 90% correct couse it's realy great & it sounds good!..
listen to the song for the right timing and strumming..
Its in drop "D" tune..

CHORDS USED:
   *G        G        D*       E        D        C
e|-----| e|-----| e|-----| e|-----| e|-----| e|-----|
B|-----| B|-----| B|-----| B|-----| B|-----| B|-----|
G|-----| G|--4--| G|--7--| G|-----| G|-----| G|--5--|
D|--5--| D|--5--| D|--7--| D|--2--| D|--0--| D|--5--|
A|--5--| A|--5--| A|--5--| A|--2--| A|--0--| A|--3--|
D|--5--| D|--5--| D|--0--| D|--2--| D|--0--| D|--x--|


e|--*12--|
B|--*12--|
G|--*12--|hit it harmonics on this part!
D|--*12--|
A|--*12--|
D|--*12--|

intro
e|------------------------------|
B|------------------------------|
G|----4--7-7-7-7----4--7-7-7-7--|
D|--5-5--7-7-7-7--5-5--7-7-7-7--|repeat 2x
A|--5-5--5-5-5-5--5-5--5-5-5-5--|
D|--5-5--0-0-0-0--5-5--0-0-0-0--|

e|------------------------------|
B|------------------------------|
G|----4--7-7-7-7----4--7-7-7-7--|
D|--5-5--7-7-7-7--5-5--7-7-7-7--|repeat 8x for verse
A|--5-5--5-5-5-5--5-5--5-5-5-5--|
D|--5-5--0-0-0-0--5-5--0-0-0-0--|

Jamie, what you doing now?
What you doing now girl?
Please, please tell me
Cause I need to know, I need to know now

e|-----------------------------|
B|-----------------------------|
G|--------------------5x--55x--|
D|--5x--550x--002x--225x--55x--|repeat 2x
A|--5x--550x--002x--223x--33x--|
D|--5x--550x--002x--22---------|

When I was down, you came to me
And promised you'd always be
By my side, now you're gone
And I'm waiting patiently

e|--------------------------------------------|
B|--------------------------------------------|
G|----4--7-7-7-7----4--7-7-7-7--7/999--4-4-5--|
D|--5-5--7-7-7-7--5-5--7-7-7-7--7/999--4-4-5--|
A|--5-5--5-5-5-5--5-5--5-5-5-5--5/777--2-2-3--|
D|--5-5--0-0-0-0--5-5--0-0-0-0----------------|
      Jamie,                I want you to know

  *G  G     D*     E      D           C
Jamie, oh Jamie, I'm so glad you're mine
*G    G    D*            E   C
We'll be together a long time

REPEAT INTRO

e|------------------------------|
B|------------------------------|
G|----4--7-7-7-7----4--7-7-7-7--|
D|--5-5--7-7-7-7--5-5--7-7-7-7--|repeat accordingly
A|--5-5--5-5-5-5--5-5--5-5-5-5--|
D|--5-5--0-0-0-0--5-5--0-0-0-0--|

Jamie, what you doing now?
He's dialin' your car phone
Please, please be true
You know that I trust you, do that which you must do

e|-----------------------------|
B|-----------------------------|
G|--------------------5x--55x--|
D|--5x--550x--002x--225x--55x--|repeat 2x
A|--5x--550x--002x--223x--33x--|
D|--5x--550x--002x--22---------|

When I was down, you came to me
And promised you'd always be
By my side, now you're gone
And I'm waiting patiently

e|--------------------------------------------|
B|--------------------------------------------|
G|----4--7-7-7-7----4--7-7-7-7--7/999--4-4-5--|
D|--5-5--7-7-7-7--5-5--7-7-7-7--7/999--4-4-5--|
A|--5-5--5-5-5-5--5-5--5-5-5-5--5/777--2-2-3--|
D|--5-5--0-0-0-0--5-5--0-0-0-0----------------|
      Jamie,                I want you to know

*G  G     D*     E      D           C
Jamie, oh Jamie, I'm so glad you're mine
*G    G    D*            E   C
We'll be together a long time
*G     G       D*               E          D       C
You've got the Beach Boys, and your firm's got the Stones
*G    G        D*             E   C
But I know you won't leave me alone

e|----------------------|its a little trikky
B|----------------------|so listen to the song
G|-----------------55x--|to get the right timing..^^
D|--55x--50022x--2055x--|
A|--55x--50022x--2033x--|
D|--55x--50022x--20-----|
Sometimes it seems you're not with me
e|------------------------------|
B|------------------------------|
G|----4--7-7-7-7----4--7-7-7-7--|
D|--5-5--7-7-7-7--5-5--7-7-7-7--|
A|--5-5--5-5-5-5--5-5--5-5-5-5--|
D|--5-5--0-0-0-0--5-5--0-0-0-0--|
It hurts me so much, it hurts me so much
e|----------------------|
B|----------------------|
G|-----------------55x--|
D|--55x--50022x--2055x--|
A|--55x--50022x--2033x--|
D|--55x--50022x--20-----|
Sometimes it seems you're not with me
e|------------------------------|
B|------------------------------|
G|----4--7-7-7-7----4--7-7-7-7--|
D|--5-5--7-7-7-7--5-5--7-7-7-7--|
A|--5-5--5-5-5-5--5-5--5-5-5-5--|
D|--5-5--0-0-0-0--5-5--0-0-0-0--|
It hurts me so much, it hurts me so much

bridge solo:

its a little tricky and fast. I believe there's a second guitar.. just add the missing 
if you find any..
e|---------------------------------------------|
B|---------------------------------------------|
G|----4-7/9-7----------4-7/9-7-----------------|
D|--5-5-7/9-75x55----5-5-7/9-75x55--5h7-5h7-0--|repeat 2x
A|--5-5-5/7-55x55----5-5-5/7-55x55--5h7-5h7-0--|
D|--5-5------5x55----5-5------5x55--5h7-5h7-0--|

e|-----------------------------|
B|-----------------------------|
G|--------------------5x--55x--|
D|--5x--550x--002x--225x--55x--|repeat 4x?
A|--5x--550x--002x--223x--33x--|
D|--5x--550x--002x--22---------|

You are the most, you're so rad, you're so fresh
And I'm so glad
I am yours, you are mine
Show me where and I will sign
When I was down, you came to me
And promised you'd always be
By my side, now you're gone
And I'm waiting, waiting

*G  G     D*     E      D           C
Jamie, oh Jamie, I'm so glad you're mine
*G    G    D*            E   C
We'll be together a long time
*G  G     D*       E       D       C
Jamie, believe me, I won't let you down
*G        G       D*            E   C
Cause you are the best lawyer in town

e|----------------------|
B|----------------------|
G|-----------------55x--|
D|--55x--50022x--2055x--|
A|--55x--50022x--2033x--|
D|--55x--50022x--20-----|
Sometimes it seems you're not with me
e|------------------------------|
B|------------------------------|
G|----4--7-7-7-7----4--7-7-7-7--|
D|--5-5--7-7-7-7--5-5--7-7-7-7--|
A|--5-5--5-5-5-5--5-5--5-5-5-5--|
D|--5-5--0-0-0-0--5-5--0-0-0-0--|
It hurts me so much, it hurts me so much
e|----------------------|
B|----------------------|
G|-----------------55x--|
D|--55x--50022x--2055x--|
A|--55x--50022x--2033x--|
D|--55x--50022x--20-----|
Sometimes it seems you're not with me
e|------------------------------|
B|------------------------------|
G|----4--7-7-7-7----4--7-7-7-7--|
D|--5-5--7-7-7-7--5-5--7-7-7-7--|
A|--5-5--5-5-5-5--5-5--5-5-5-5--|
D|--5-5--0-0-0-0--5-5--0-0-0-0--|
It hurts me so much, it hurts me so much
e|------------------------------|
B|------------------------------|
G|----4--7-7-7-7----4--7-7-7-7--|
D|--5-5--7-7-7-7--5-5--7-7-7-7--|
A|--5-5--5-5-5-5--5-5--5-5-5-5--|
D|--5-5--0-0-0-0--5-5--0-0-0-0--|
It hurts me so much,
e|--------------------------------------------|
B|--------------------------------------------|
G|----4--7-7-7-7----4--7-7-7-7--7/999--4-4-5--|
D|--5-5--7-7-7-7--5-5--7-7-7-7--7/999--4-4-5--|
A|--5-5--5-5-5-5--5-5--5-5-5-5--5/777--2-2-3--|
D|--5-5--0-0-0-0--5-5--0-0-0-0----------------|
    it   hurts   me    so....
e|--------------------------------------------|
B|--------------------------------------------|
G|----4--7-7-7-7----4--7-7-7-7--7/999--4-4-5--|
D|--5-5--7-7-7-7--5-5--7-7-7-7--7/999--4-4-5--|
A|--5-5--5-5-5-5--5-5--5-5-5-5--5/777--2-2-3--|
D|--5-5--0-0-0-0--5-5--0-0-0-0----------------|
    much....

ends in:
e|-----|
B|-----|
G|-----|
D|--5--|
A|--5--|
D|--5--|



Important: The song above is NOT stored on the Chordie server. The original song is hosted at www.guitaretab.com. Chordie works as a search engine and provides on-the-fly formatting. Chordie does not index songs against artists/composers will. To remove this song please click here.

This song is displayed as text-only. Transposing and tuning is only available for chordpro-songs.

Login - add to songbook

Rating click stars to rate

Layout
Accuracy

SHARE PAGE  




You need to log in to post comments