Guitar Tabs, Chords and Lyrics


Angeline The Baker  David Grier



|--------------------|

|--------------------|
|---------------0~h~-|
|---------------0----|
|--------------------|
|--------------------|
1 [D]|   |   |   |   2 [D]|   |   |   |   3 [D]|   |   |   |   4 [G/D]|   |   |   |
|-----------------|-----------------|-------------0---|-----3-----3-----|
|---------3-------|-----3-----3-----|---------3-------|---------3-----3-|
|~2-2-4---2---2-2-|-4---2-------4---|-2---4---2-------|-4-----4-----4---|
|*--------0-------|-0---0-----------|-0-------0-------|-0---------------|
|*----------------|-----------------|-----------------|-----------------|
|-----------------|-----------------|-----------------|-----------------|


fingering: (33 1 3~3 2 1~3 2) 1.______________
5 [D]|   |   |   |   6 [D]|   |   |   |   7 [D]|   |   |   |   8 [D]|   |   |   |
|-------------0---|-s-5--s--------0-|-s-5--s----------|-----------------|
|---------3-------|57---7~5-3-------|57---7~5-3-----3-|-------3------h--|
|-2---4---2-------|-----------------|-----------2~4---|-2---2---2---2~4*|
|-0-------0-------|-----------------|------------h----|-0---0---0---0--*|
|-----------------|-----------------|-----------------|-----------------|
|-----------------|-----------------|-----------------|-----------------|


2._______________
16[D]|   |   |   |hh
|-------------023-|
|-------3---------|
|-2---2---2-------|
|-0---0---0-------|
|-----------------|
|-----------------|



Part B
17[D]|   |   |   |  18 [D]|   |   |   |  19 [D]|   |   |hp |  20 [G/D]|   |   |   |
|-5---2---0-----0-|-2-0-------------|-5-5-2---020-----|-------3---3-3---|
|-------------3---|-----3--h--3-----|-3-----------3---|-------3---3-3---|
|*----------------|-------2~4---2---|-2---------------|-4---4-----4-4---|
|*----------------|-------0-----0---|-0---------------|-0---------------|
|-----------------|-----------------|-----------------|-----------------|
|-----------------|-----------------|-----------------|-----------------|


1.______________
21[G/D]|   |   |   |  22 [G/D]|   |   |   |  23 [D/A]|   |   |   |  24 [D]|   |   |   |hh
|-5---2---0-----0~h~2-0-------------|-------0-2-0-----|-------------023-|
|-3---3-------3---|-----3-----------|-----3-------3---|-3---3-3-3-------|
|-0---0-----------|---------4---4-4-|-2-4-----------4-|-2---2-2-2------*|
|-0---0-----------|---------0-------|-----------------|-0---0-0-0------*|
|-----------------|-----------------|-----------------|-----------------|
|-----------------|-----------------|-----------------|-----------------|


2.______________
A (to start over)
32| | | |
|--------------------|
|-------0------------|
|-2-------2-----0~h~-|
|-2-------2-----0----|
|-0-------0----------|
|--------------------|


Comments or corrections welcomed:
Mark Klan, Knoxville, Tennessee
markklan@1stresource.com
December 1995
--=====================_820965407==_--

Important: The song above is NOT stored on the Chordie server. The original song is hosted at www.guitaretab.com. Chordie works as a search engine and provides on-the-fly formatting. Chordie does not index songs against artists'/composers' will. To remove this song please click here.

Text color:
Chord color:
Chord grids: 
Font size:    
Page size: 

D G/D
variations - click chord images

Login - add to songbook

Transpose chords

Tuning

Rating click stars to rate

Layout
Accuracy

SHARE PAGE  




You need to log in to post comments