Chordie logo

Sound Of Settling   Death Cab For Cutie



Death Cab For Cutie
The Sound Of Settling
Tabbed By Kellen

Standard Tuning

h=hammer on
x=muted string

Capo on the 2nd fret
All tab in relation to the capo.

Intro/Verse
Guitar 1
E|-----------------------------------|
B|-----------------------------------|
G|-------------1---------------------|
D|-2---2---4-------------------------|  x4
A|-4-----------------4---4---7---7---|
E|---0---0---0---0-2---2---5---5-----|

Guitar 2 comes in after Guitar 1 plays verse riff twice
E|----------------------------|
B|----------------------------|
G|-6--6---8--9----6--6----2---|
D|-x--x---x--x----x--x--------|  x2
A|-4--4---6--7----4--4--0-----|
E|----------------------------|

Chorus (down up down down down for each chord)
E|-----------------------------------|
B|-----------------------------------|
G|-13------11-------8-------9--------|
D|--x (x5)--x (x5)--x (x5)--x (x5)---|  x1
A|-11-------9-------6-------7--------|
E|-----------------------------------|

E|-----------------------------------|
B|-----------------------------------|
G|-13------11-------8-------6--------|
D|--x (x5)--x (x5)--x (x5)--x (x5)---|  x1
A|-11-------9-------6-------4--------|
E|-----------------------------------|

E|---------------------------------|
B|---------------------------------|
G|--9-------8------4------2--------|
D|--x (x5)--x (x5)-x (x5)-2 (x5)---|  x2
A|--7-------6------2------0--------|
E|---------------------------------|

Post Chorus
E|---------------------------------------------|
B|---------------------------------------------|
G|-9-9-99999--9-9-99999--9-9-99999-9-9-88888---|
D|-x-x-xxxxx--x-x-xxxxx--x-x-xxxxx-x-x-99999---|  x1
A|-7-7-77777--7-7-77777--7-7-77777-7-7-77777---|
E|---------------------------------------------|

Second Verse
Guitar 1
E|----------------------------|
B|----------------------------|
G|-6--6---8--9----6--6----2---|
D|-x--x---x--x----x--x--------|  x4
A|-4--4---6--7----4--4--0-----|
E|----------------------------|

Guitar 2 comes in after Guitar 1 has played Second Verse once
E|-------0----------------------------|
B|---0h2---6-----0h2-0----2--2--------|
G|---------------------1--4-----------|
D|------------------------------4---2-|
A|------------------------------------|
E|------------------------------------|

E|---------------------------------------------|
B|--5----5---7----9----5----5-------------5----|
G|--6----6---8----9----6----6----6-----4-----4-|
D|---------------------------------------------|
A|---------------------------------------------|
E|---------------------------------------------|

E|-----------------------------------------|
B|--5----5---7----9----5----5--------7---5-|

G|--6----6---9----9----6----6----6---------|
D|-----------------------------------------|
A|-----------------------------------------|
E|-----------------------------------------|

Chorus again

Post Chorus x2

End
E|---------------------------|
B|---------------------------|
G|-------------1-------------|
D|-2---2---4-----------------|
A|-4-----------------4---4---|
E|---0---0---0---0-2---2---5-|

Once again, remember that this tab is in relation to the capo.



Important: The song above is NOT stored on the Chordie server. The original song is hosted at www.guitaretab.com. Chordie works as a search engine and provides on-the-fly formatting. Chordie does not index songs against artists/composers will. To remove this song please click here.

This song is displayed as text-only. Transposing and tuning is only available for chordpro-songs.

Login - add to songbook

Rating click stars to rate

Layout
Accuracy

SHARE PAGE  



You need to log in to post comments