Guitar Tabs, Chords and Lyrics


The Rakes Song   Decemberists



Artist: The Decemberists
Track: The Rake's Song
Album: The Hazards Of Love

This is a song from the Decemberists forthcoming album, The Hazards Of Love. I'm almost 
that this is 100% correct. Enjoy.


Verses 1&2
E---------------|
B---------------|
G---------------|
D---------------|
A-5-5-5---2-2-2-|
E-3-3-3-x-0-0-0-|

Verse (used for rest of the song)
E---------------|
B---------------|
G---------------|
D-5-5-5-x-2-2-2-|
A-5-5-5-x-2-2-2-|
E-3-3-3-x-0-0-0-|

Chorus (Alright, Alright...)
E---------------------|
B-1----1--------------|
G-2----0--------------|
D-2----2--------------|
A-0----3--------------|
E---------------------|

Ending
E----------------|
B----------------|
G----------------|
D-5-5-5--2-2--2--|
A-5-5-5--2-2--2--|


Important: The song above is NOT stored on the Chordie server. The original song is hosted at www.guitaretab.com. Chordie works as a search engine and provides on-the-fly formatting. Chordie does not index songs against artists'/composers' will. To remove this song please click here.

This song is displayed as text-only. Transposing and tuning is only available for chordpro-songs.

Login - add to songbook

Rating click stars to rate

Layout
Accuracy

SHARE PAGE  




You need to log in to post comments