Chordie logo
content loaded from cache

Here With Me Live  Dido

-|------------------------|---------------------------|-----------------------|


-|------0-----------0-----|---------2-----------2-----|-----------------------|


-|------0-----------0-----|---------2-----------2-----|-----------------------|


-|----4-----------4-------|------6------------6-------|-----------------------|


-|--2-----------2---------|---4-------------4---------|-----------------------|


-|0-----------0-----------|2--------------2-----------|-----------------------|







 -|----------------|----------------|----------------|----------------|


 -|--8---8---8---8-|--8---8---8---8-|--7---7---7---7-|--7---7---7---7-|


 -|7---7---7---7---|7---7---7---7---|7---7---7---7---|7---7---7---7---|


 -|----------------|----------------|----------------|----------------|


 -|----------------|----------------|----------------|----------------|


 -|----------------|----------------|----------------|----------------|









Oh I [Emadd9]am what I am, I'll do what I want, but [F#add9]I can't hide

Chorus
I won't [G]go, I won't sleep
I can't [D]breathe, until you're [Dmaj7]resting here
I won't [Bm]leave, I can't hide
I cannot [Asus2]be, until you're r[Asus]esting here with m[A]e

(pause)

V2
I don't want to call my[G] friends, they might wake me from this[Bm] dream
And I can't [G]leave this bed, risk forgetting [Bm]all that's been
Oh I [Emadd9]am what I am, I'll do what I want, but [F#add9]I can't hide

I won't [G]go, I won't sleep
I can't [D]breathe, until you're [Dmaj7]resting here with me
I won't [Bm]leave, I can't hide
I cannot[Asus2] be, until you're [Asus]resting here with [A]me
(repeat chorus)


     [Emadd9]                  [F#add9]              
Oh I [Emadd9]am what I am, I'll do what I want, but [F#add9]I can't hide


chorus once more

Important: The song above is NOT stored on the Chordie server. The original song is hosted at www.guitaretab.com. Chordie works as a search engine and provides on-the-fly formatting. Chordie does not index songs against artists/composers will. To remove this song please click here.

A Asus Asus2 Bm D Dmaj7 Emadd9 F#add9 G
variations - click chord images

Transpose chords

Tuning

Rating click stars to rate

Layout
Accuracy

SHARE PAGE  

You need to log in to post comments