Guitar Tabs, Chords and Lyrics


Am Ende Meines Krpers  Die ÄRzte

Man [am]braucht viel Prov[C]iant,
denn diese [B]Reise dauert [B]ca. sieben Ja[am]hre.  [C]   [B]   [B]
e G
Bisher kam keiner je zurück,
F# F e
denn ungefährlich ist die Gegend nicht.


(auf das letzte e folgt diese Begleitung:)

E:-------------------------------------|------------------------------------|
H:-------------------------------------|------------------------------------|
G:-------------------------------------|------------------------------------|
D:-4-4-74--4-4-74--4-4--74---4-4--74---|-77-10--7---77-10--7------77-10-7---|
A:--------7-------7--------7----------7|---------10-----------10---------10-|
E:-------------------------------------|------------------------------------|


dann: e G F# F


2. Strophe

e G
An regnerischen Tagen,
F# F e G F# F
sind die Haare von hier unten kaum zu sehen.
e G
Man ahnt zwar, daß sie da sind,
F# F e G F# F
aber wissen kann man's nie so ganz genau.
Er[am]forscht wurde mein [C]Körper,
richtig [B]gründlich bisher [B]nur an meinen [am]Zehen.[C]   [B]   [B]
e G F#
Doch Haare, Arme, Nase, Ohren und Arsch,
F e
die kennt bisher noch keine Sau.


E :----------------------------------------|
H :----------------------------------------|
G :----------------------------------------|
D :-4-4--7-4--4-4-74--4-4--74----4-4--74---|
A :----------7-------7---------7----------7|
E :----------------------------------------|



a - e - C - H

[C]   [-]   [G]  [-]  [D#]   [-]  [D]                      
a - e - C - H

[C]   [-]   [G]  [-]  [D#]   [-]  [D]                      

3. Strophe:

e G
Am Ende meines Körpers,
F# F e G F# F
von den Füßen aus gesehen, wachsen Haare.
e G
Sie sind ein bißchen unheimlich,
F# F e G F# F
oft seltsam und nachts machen sie oft Krach.
[am]Es gibt da ein [C]Geheimnis,
was ich [B]eigentlich für [B]mich allein verw[am]ahre.[C]   [B]   [B]
e G
Ich schneid' sie manchmal ab,
F# F e G F# F
jedoch sie wachsen von alleine wieder nach.


e - G - F# - F - (e)

Important: The song above is NOT stored on the Chordie server. The original song is hosted at www.guitaretab.com. Chordie works as a search engine and provides on-the-fly formatting. Chordie does not index songs against artists'/composers' will. To remove this song please click here.

Text color:
Chord color:
Chord grids: 
Font size:    
Page size: 

B C D D# G
variations - click chord images

Login - add to songbook

Transpose chords

Tuning

Rating click stars to rate

Layout
Accuracy

SHARE PAGE  




You need to log in to post comments