How Do You Feel

Die Toten Hosen

 e|------------------------------|

h|------------------------------|
g|------------------------------|
D|-2-4-4-4-2-4-4-4-2-4-4-2------|
A|-2-4-4-4-2-4-4-4-2-4-4-2------|
E|-0-2-2-2-0-2-2-2-0-2-2-0------| 2x
e|------------------------------|
h|------------------------------|
g|------------------------------|
D|-2-4-4-4-2-4-4-4-2-4-4-2--2--2|
A|-2-4-4-4-2-4-4-4-2-4-4-2--2--2|
E|-0-2-2-2-0-2-2-2-0-2-2-0--0--0| 2x
e|--------------------------------------------------------------|
h|--------------------------------------------------------------|
g|-7-7-7-7-7-7-7-7-6-6-6-6-6-6-6-6------------------------------|
D|-7-7-7-7-7-7-7-7-6-6-6-6-6-6-6-6-2-4-4-4-2-4-4-4-2-4-4-2--2--2|
A|-5-5-5-5-5-5-5-5-4-4-4-4-4-4-4-4-2-4-4-4-2-4-4-4-2-4-4-2--2--2|
E|---------------------------------0-2-2-2-0-2-2-2-0-2-2-0--0--0|
e|------------------------------|
h|------------------------------|
g|------------------------------|
D|-2-4-4-4-2-4-4-4-2-4-4-2--2--2|
A|-2-4-4-4-2-4-4-4-2-4-4-2--2--2|
E|-0-2-2-2-0-2-2-2-0-2-2-0--0--0| 2x
e|--------------------------------------------------------------|
h|--------------------------------------------------------------|
g|-7-7-7-7-7-7-7-7-6-6-6-6-6-6-6-6------------------------------|
D|-7-7-7-7-7-7-7-7-6-6-6-6-6-6-6-6-2-4-4-4-2-4-4-4-2-4-4-2--2--2|
A|-5-5-5-5-5-5-5-5-4-4-4-4-4-4-4-4-2-4-4-4-2-4-4-4-2-4-4-2--2--2|
E|---------------------------------0-2-2-2-0-2-2-2-0-2-2-0--0--0|
e|-----------------------------------------------------------------|
h|-----------------------------------------------------------------|
g|-7-7-7-7-7-7-7-7-6-6-6-6-6-6-6-6---------------------------------|
D|-7-7-7-7-7-7-7-7-6-6-6-6-6-6-6-6-4-4-4-4-4-4-4-4-7-7-7-7-7-7-7-7-|
A|-5-5-5-5-5-5-5-5-4-4-4-4-4-4-4-4-4-4-4-4-4-4-4-4-7-7-7-7-7-7-7-7-|
E|---------------------------------2-2-2-2-2-2-2-2-5-5-5-5-5-5-5-5-|
e|--------------------------------------------------------------|
h|--------------------------------------------------------------|
g|-7-7-7-7-7-7-7-7-6-6-6-6-6-6-6-6------------------------------|
D|-7-7-7-7-7-7-7-7-6-6-6-6-6-6-6-6-2-4-4-4-2-4-4-4-2-4-4-2------|
A|-5-5-5-5-5-5-5-5-4-4-4-4-4-4-4-4-2-4-4-4-2-4-4-4-2-4-4-2------|
E|---------------------------------0-2-2-2-0-2-2-2-0-2-2-0------|

Gain aufgedreht:
 e|------------------------------|
 h|------------------------------|
 g|------------------------------|
 D|-2-4-4-4-2-4-4-4-2-4-4-2--2--2|
 A|-2-4-4-4-2-4-4-4-2-4-4-2--2--2|
 E|-0-2-2-2-0-2-2-2-0-2-2-0--0--0| 2x


Strophe: gleiche akkorde

Why do you always criticize and tell those selfish lies?
Do you feel better for it - what's the deal?

Chorus:
 F#5E5B5D5
       How    do you feel?      2x

Strophe:
 e|------------------------------|
 h|------------------------------|
 g|------------------------------|
 D|-2-4-4-4-2-4-4-4-2-4-4-2------|
 A|-2-4-4-4-2-4-4-4-2-4-4-2------|
 E|-0-2-2-2-0-2-2-2-0-2-2-0------| 


Two can play at your game if you wanna mess with me.
I'll take you fucking on and you will see

Pre-Chorus:

just how it feels when I decide to kick somebody down
and leave them sprawling on the ground!

Chorus: 4x

How do you feel?
If you think it's worth it,
try to mess with me,
come on I'll take you on and you will see!

Solo:
 F#5E5B5
 e|-------------------------------------------------|
 h|-------------------------------------------------|
 g|-----2-2---2-----2-2---2-----2-2---2-----2-2---2-|
 D|-4-------4---2-------2---------------------------|
 A|-------------------------2-------2---2-------2---|
 E|-------------------------------------------------|


 F#5E5B5
 e|---------------------------------------------------------|
 h|-----------------------------------------3-3-3-3-5-5-5-5-|
 g|-----2-2---2-----2-2---2-4-4-4-4-6-6-6-6-----------------|
 D|-4-------4---2-------2-----------------------------------|
 A|---------------------------------------------------------|
 E|---------------------------------------------------------| 


2x

Bridge(gedämpft):

 e|------------------------------|
 h|------------------------------|
 g|------------------------------|
 D|-2-4-4-4-2-4-4-4-2-4-4-2--2--2|
 A|-2-4-4-4-2-4-4-4-2-4-4-2--2--2|
 E|-0-2-2-2-0-2-2-2-0-2-2-0--0--0| 2x
 e|------------------------------|
 h|------------------------------|
 g|------------------------------|
 D|-2-4-4-4-2-4-4-4-2-4-4-2--2--2|
 A|-2-4-4-4-2-4-4-4-2-4-4-2--2--2|
 E|-0-2-2-2-0-2-2-2-0-2-2-0--0--0| 2x


Everything comes back to you, everything comes round.

 e|--------------------------------------------------------------|
 h|--------------------------------------------------------------|
 g|-7-7-7-7-7-7-7-7-6-6-6-6-6-6-6-6------------------------------|
 D|-7-7-7-7-7-7-7-7-6-6-6-6-6-6-6-6-2-4-4-4-2-4-4-4-2-4-4-2------|
 A|-5-5-5-5-5-5-5-5-4-4-4-4-4-4-4-4-2-4-4-4-2-4-4-4-2-4-4-2------|
 E|---------------------------------0-2-2-2-0-2-2-2-0-2-2-0------|


Which of us is on the solid ground?

(Gain aufgedreht):

 D5C#5F#5A5
  The inciter, the fighter, the neutral or the weak,
D5 C#5 F#5(überfließend in Chorus)
the one who always turns the other cheek.

Chorus: (2. Gitarre spielt das Solo drüber)

How do you feel?
How do you feel?
How do you feel?
If you think it's worth it,
try to mess with me,
come on I'll take you on and you will see!
How do you feel?
How do you feel?
How do you feel?

Schluss mit: F#5

A5 B5 C#5 D5 E5 F#5
variations - click chord images
Transpose chords:
Tuning:
Cool service:
View: Size:
A  A  A
Rating:
Layout:
  • Currently 0/5 Stars.
  • 1
  • 2
  • 3
  • 4
  • 5
 
Accuracy:
  • Currently 0/5 Stars.
  • 1
  • 2
  • 3
  • 4
  • 5
 
click stars to rate
Chordie recommends:
Check out JamPlay.com for online video guitar lessons
Songbook:
Login to add this song to your songbook
Support the artist
Preview/buy this song
MSN Music
Why this non-profit ad?

 
login to add comments/video/corrections