Guitar Tabs, Chords and Lyrics


Akuro No Oka   Dir En Grey



Tabbed by: yoyo

very fun to play once u learn it, not too hard either
*listen to the song while looking at this and you will be able to figure it out* enjoys~


Tuning:standard

e|-------------------------------------------------------|
B|-3/8-7-8-5\----/5-7-8---/7-8-10-8/10---8-7-8~---10-8~--|
G|-------------------------------------------------------|
D|-------------------------------------------------------|
A|-------------------------------------------------------|
E|-------------------------------------------------------|

e|-------------------------------------------------------------15-15-14-14b15-------|
B|-8--7-7-5-5-7-5-0-----------------5-8-7-8--/10-10-/12-12--12----------------12~---|
G|----------------------------------------------------------------------------------|
D|-------------------7-5-X-4-4-4-5--------------------------------------------------|
A|----------------------------------------------------------------------------------|
E|----------------------------------------------------------------------------------|

e|----12--14---15-----14----12--12---------14-14-14-15-15----|
B|-/12--12--12---12-12----12--12-------12--12-12-12-12-12----|
G|-----------------------------------------------------------|
D|-----------------------------------------------------------|
A|-----------------------------------------------------------|
E|-----------------------------------------------------------|

e|----15-14-----/15-14-------/15-14-15\---/17-17-17-15-14-15~-----|
B|-/12------12\---------12\---------------------------------------|
G|----------------------------------------------------------------|
D|----------------------------------------------------------------|
A|----------------------------------------------------------------|
E|----------------------------------------------------------------|


| /  slide up
| \  slide down
| h  hammer-on
| p  pull-off
| ~  vibrato
| +  harmonic
| x  Mute note


Important: The song above is NOT stored on the Chordie server. The original song is hosted at www.guitaretab.com. Chordie works as a search engine and provides on-the-fly formatting. Chordie does not index songs against artists'/composers' will. To remove this song please click here.

This song is displayed as text-only. Transposing and tuning is only available for chordpro-songs.

Login - add to songbook

Rating click stars to rate

Layout
Accuracy

SHARE PAGE  




You need to log in to post comments