My Friend

Dr Dog

-----------------------------------------------------------------

-----------------------------------------------------------------
e|-----0---------------------------------------------------------|
b|-----0--------------------------5-5----------------------------|
g|-----1------------------4-4/6--------6\4-4---------------------|
d|-----2---------------------------------------------------------|
a|-----2---------------------------------------------------------|
e|-----0---------------------------------------------------------|

 AE
 My friend says that the end holds nothing more
B C#Minor
He don't hide his shame, says its all the same
 ABE
Like a man without a name

INTRO AGAIN

 AE
 Old days asleep in the shade by the Brandywine
B C#Minor
See a dog get paid, see a boy behave
A B E E(add 4th fret on
 E
 Every bone deserves a grave

 E5D#5D5C#5
 But I heard the Good Lord's warning
 F#5F5E5D#5
like he might not forget by the morning
G#Minor C#Minor G#Minor
With no more terrifying thoughts of dying
 AC
 ooh oooooh oooh       

INTRO AGAIN

 AE
 My Lord, I'm climbing aboard and I'm going home
B C#Minor
No time to lose, no time to pack
A B E E(add 4th fret on
 E
 Take a step and take it back

 E5D#5D5C#5
 But I heard the Good Lord's warning
 F#5F5E5D#5
like he might not forget by the morning
G#Minor C#Minor G#Minor
With no more terrifying thoughts of dying
 AC
 ooh oooooh oooh       

E C#Minor
Keep on with the living you'll soon enough be dead
A G#Minor F#Minor
You got the whole world spinning in your head
 E
and you don't want to give it up (don't give it up, don't give it up)

E C#minor
Cause no one should be sorry, we're just another day
A G#Minor F#Minor
You can say you'll be back
 E
but you won't ever go away (won't go away, won't go away)

E C#Minor
Cause love that never leaves is never ever welcome back
A G#Minor F#Minor
and i'm running out of skin thick enough to hide in
 E
 (won't go away, won't go away)

E C#Minor
Now hand in hand we're back in time we're chasing the train
A G#Minor F#minor
Looking back looking back to wave goodbye
 E
we're headed for the same disaster (don't give it up, don't give it up)

They play this lick a lot on the outro part
e|-------------------------------------------------------------------|
b|-------------------------------------------------------------------|
g|-------------------------------------------------------------------|
d|------- 2-2-----------2-2---------2-2--------------2---------------|
a|----------------------------------------------2/4------4\2--2------|
e|----2p0---------2p0--------2p0-------------------------------------|


Of course there are some other licks and solos, I have decided not to tab those. Sorry
there are some alignment issues. Have fun.

| / slide up
| \ slide down
| h hammer-on
| p pull-off
| ~ vibrato
| + harmonic
| x Mute note


A B C C#5 D#5 D5 E E5 F#5 F5
variations - click chord images
Transpose chords:
Tuning:
Cool service:
View: Size:
A  A  A
Rating:
Layout:
  • Currently 2.5/5 Stars.
  • 1
  • 2
  • 3
  • 4
  • 5
 
Accuracy:
  • Currently 2.5/5 Stars.
  • 1
  • 2
  • 3
  • 4
  • 5
 
click stars to rate
Chordie recommends:
Learn how to play guitar at JamPlay.com
Songbook:
Login to add this song to your songbook
Support the artist
Preview/buy this song
MSN Music
Why this non-profit ad?

 
login to add comments/video/corrections