"yes"; ?> I Found A Way by Drake Bell - guitar chords, guitar tabs and lyrics - chordie

I Found A Way

Drake Bell

 EAB
 I never thought that it'd be so simple but
 EAB
 I found a way, I found a way
 EAB
 I always thought that it'd be too crazy but
 EAB
 I found a way, I found a way
 C#mF#A
    If you open up your mind
 Am
 See what's inside
 EF#AAm
 Well it's gonna take some time, to realize
 EF#AAm
 But if you look inside, I'm sure you'll find 
 EF#A
 Over your shoulder you know that I told you
 F#
I'll always be pickin' you up when your down
 AAm
So just turn around 
 EAB
 Now that I know that anything's possible
 EAB
 I found a way, I found a way
 EAB
 No one can break what is so unbreakable
 EAB
 I found a way, I found a way
 C#mF#A
 And if you open up your mind
 Am
 See what's inside
 EF#AAm
 Well it's gonna take some time, to realize 
 EF#AAm
 But if you look inside, I'm sure you'll find 
 EF#A
 Over your shoulder you know that I told you
 F#
I'll always be pickin' you up when your down
 AAm
So just turn around 
 EE
 No one cares, what you give
 E
 You know you gotta live like you wanna live
 EE
 When it's time, to be free
 E
 You know you gotta be what you wanna be

--SOLO--
e--------------------------------12b----------12--12---|
B-5b-----------------------------15b-15-12-15---12---X-|
G-7b--7----------------------------------------------X-|
D----7--------------5h7p5-7-7p5----------------------X-|
A-------5h7p5-7-7p5------------------------------------|
E------------------------------------------------------|
e------------------3-0-----0h3-5-5-3-0--0--0-3-0--------|
B--------------------------------------3--3-------------|
G----------------------2--------------------------------|
D-12h14p12-14-14p12-----2------------------------2-0--0-|
A----------------------------------------------------2--|
E-------------------------------------------------------|
e----------------3--0-3p0--------------------------|
B-----------------3-------3p0----------------------|
G-2--2-2-0--------------------2p0------------------|
D----------2p0h2------------------2p0--------------|
A-------------------------------------2p0----------|
E------------------------------------------3p0-3p0-|


 C#mF#A
 And if you open up your mind
 Am
 See what's inside
 EF#AAm
 It's gonna take some time, to realize 
 EF#AAm
 But if you look inside, I'm sure you'll find
 EF#
 Over your shoulder you know that I told you
 AF#
I'll always be pickin' you up when your down
 AAm
So just turn around...
 E
 OOOOOOOOOO


A Am B C#m E F#
variations - click chord images
Transpose chords:
Tuning:
Cool service:
View: Size:
A  A  A
Rating:
Layout:
  • Currently 3.3/5 Stars.
  • 1
  • 2
  • 3
  • 4
  • 5
 
Accuracy:
  • Currently 3.5/5 Stars.
  • 1
  • 2
  • 3
  • 4
  • 5
 
click stars to rate
Chordie recommends:
Check out JamPlay.com for online video guitar lessons
Songbook:
Login to add this song to your songbook
Support the artist
Preview/buy this song
MSN Music
Why this non-profit ad?

 
login to add comments/video/corrections