Guitar Tabs, Chords and Lyrics


To Lick Your Boots  Eels

----------------------------------------------------------------------------



----------------------------------------------------------------------------

   [D]         [D]        [C]        [C]                                                       
e|-----2--------2-------0-------0------------------------------------------|
B|-----3--------3-------0-------0------------------------------------------|
G|---2---2----2---2---1---1---1---1----------------------------------------|
D|-0--------0--------------------------------------------------------------|
A|------------------3-------3----------------------------------------------|
E|-------------------------------------------------------------------------|

Second tab:

   [D]         [D]           [C]         [C]                                                   
e|-----5--------5----------3--------3--------------------------------------|
B|-----7--------7----------5--------5--------------------------------------|
G|---7---7----7---7s5----5---5----5---5s7----------------------------------|
D|-------------------------------------------------------------------------|
A|-5--------5----------3--------3------------------------------------------|
E|-------------------------------------------------------------------------|


Okay when you've choosed your tabs, just play the C and D chords in the song
the same way.

D D c c
Miss o'malley didn't mean what she said
D D c c
Got a heart but a head full of lead
D D c c
She can dream but she never can do it
[D]You're alri[D]ght and you're [C]gonna get [C]through it

[F]People spend their [G]days
[G]Trying to find new [F]ways
[F]To put you [G]down all over [F]town
[F]But they're not [G]fit
[G]To lick your b[C]oots
(just play the chord here, except the C chord which is played as above)

| D | D | C | C | x4

    [Am]       [Bm]         [C]       [Bm]                                                        
e|-----0-------2-------3------2------|
B|------1-------3-------5------3-----|
G|-------2-------4-------5------4----| x2
D|-----------------------------------|
A|--0-------2-------3-------2--------|
E|-----------------------------------|


[D]Nothing harde[D]r to watc[C]h, than an e[C]nglishman  [D]
[D]Trying to c[C]ry, eve[C]n if he can     [D]
[D]He can dream but he [C]never can[C] do it     [D]
[D]Saying you -- you're the o[C]ne that blew it
[F]People spend their [G]days
[G]Trying to find new [F]ways
[F]To put you [G]down all over [F]town
[F]But they're not [G]fit
[G]To lick your b[C]oots
| D | D | C | C | x4


The Banjo (or what it is) plays this while the chords C and D are repeated:
e|-------------------------------------------------------------------------|
B|-------------------------------------------------------------------------|
G|-s7-----7s5-----5s7-----7s5-----5s7-----7s5-----5s7----------------------|
D|-s7-----7s5-----5s7-----7s5-----5s7-----7s5-----5s7----------------------|
A|-------------------------------------------------------------------------|
E|-------------------------------------------------------------------------|


[F]People spend their [G]days
[G]Trying to find new [F]ways
[F]To put you [G]down all over [F]town
[F]But they're not [G]fit
[G]To lick your b[C]oots

Keep Playing the chords D and C until the song ends


e|-------------------------------------------------------------------------|
B|-------------------------------------------------------------------------|
G|-s7-----7s5-----5s7-----7s5-----5s7-----7s5-----5s7----------------------|
D|-s7-----7s5-----5s7-----7s5-----5s7-----7s5-----5s7----------------------|
A|-------------------------------------------------------------------------|
E|-------------------------------------------------------------------------|


Mail your comments to my E-mail.

Important: The song above is NOT stored on the Chordie server. The original song is hosted at www.guitaretab.com. Chordie works as a search engine and provides on-the-fly formatting. Chordie does not index songs against artists'/composers' will. To remove this song please click here.

Text color:
Chord color:
Chord grids: 
Font size:    
Page size: 

Am Bm C D F G
variations - click chord images

Login - add to songbook

Transpose chords

Tuning

Rating click stars to rate

Layout
Accuracy

SHARE PAGE  




You need to log in to post comments