Guitar Tabs, Chords and Lyrics


side  Eels

-------------------------------------------------------------------------------



-------------------------------------------------------------------------------

   [D]           [E7]            [G]                                                            
e|--2--|   e|--0--|   e|--2--|
B|--3--|   B|--3--|   B|--2--|
G|--2--|   G|--1--|   G|--0--|
D|--0--|   D|--0--|   D|--0--|
A|-----|   A|--2--|   A|--2--|
E|-----|   E|--0--|   E|-----|

Intro:
Okay, this is the right way to play it..

   [D]            [E]             [G]            [D]                                              
e|-17-------17-16-------16--15-------15----14-------|
B|----19----------17--------15-15-------15----15----|
G|-------19----------16-----------16-------------14-|
D|--------------------------------------------------|
A|--------------------------------------------------|
E|--------------------------------------------------|


..but if you play on an acoustic guitar it may be easier to play it this way.
   [D]         [E7]         [G]           [D]                                                      
e|-2-----2--0-----0--3-----3---2-------|
B|---3--------3--------3----3----3---3-|
G|-----2--------1--------0---------2---|
D|-------------------------------------|
A|-------------------------------------|
E|-------------------------------------|

____________________________________________________________________________

(play these chords as you played them in the intro)

[D]I write the [E]b-sides
[G]that make a small portion[D] of the world cry
[D]i like the [E]seaside
[G]and singing songs that ma[D]ke you not wanna die
[D]throw a stone into [E]the sea
[G]and wait for it to come [D]back to me
[D]better get out on the [E]boat
[G]'cause someone told me that [D]stones don't float

(start to play the chords as usual)

| D | E | G | D | x2

(stop playing)

i like to sit out back
and look up at the squirrels in the trees
they don't like radio tracks
and they don't ever talk down to

(start playing as the tab above)
[D]throw a nut up [E]in the tree
[G]gonna fall right [D]back on me
[D]well these guys [E]know who they are
[G]and what they need is in their [D]own backyard

| D | E7 | G | D | x4 ( after the second, you start to play the tab as above)

(strange sound, play it if you have somekind of footpedal)
[D]i like to p[E]lay in the snow
[G]i stick my hand in now [D]where did it go
[D]it might be [E]mighty cold
[G]but that's all part of not [D]doing what you're told


| D | E | G | D | Repeat until the song ends


Send commets or anything you would like to send to my e-mail

Important: The song above is NOT stored on the Chordie server. The original song is hosted at www.guitaretab.com. Chordie works as a search engine and provides on-the-fly formatting. Chordie does not index songs against artists'/composers' will. To remove this song please click here.

Text color:
Chord color:
Chord grids: 
Font size:    
Page size: 

D E E7 G
variations - click chord images

Login - add to songbook

Transpose chords

Tuning

Rating click stars to rate

Layout
Accuracy

Jango Player

SHARE PAGE  




You need to log in to post comments