Guitar Tabs, Chords and Lyrics


La Resa Dei Conti   Ennio Morricone



:D Spaghetti western music

Intro:

e|--------------------------------|
b|--------------------------------|
g|--------------------------------|  < this twice (im not sure about how many
d|-0000000000000000000000000---0--|                0's there are)
a|---------------------------3----|
e|--------------------------------|

e|----------------------------------------------------|
b|----------------------------------------------------|
g|----------------------------------------------------| (again im not sure
d|-0\7-7777777777777777777777--5-5-7-7-5-5--33333-222-|  about the number of
a|----------------------------------------------------|  7's or 3's)
e|----------------------------------------------------|


Main Part 1

e|----------------------------------------------------|
b|----------------------------------------------------|
g|------------------------------------------5-3-0-----|
d|-7-5-7-0-0-2\7-7-5-2~---7-5-7-0--2\3-3\7------------|
a|----------------------------------------------------|
e|----------------------------------------------------|
                                                        play this twice
e|----------------------------------------------------|
b|----------------------------------------------------|
g|----------------------------------------------------|
d|--7p5h7--0-2--7-5-7--2-3--7p5h7-7-8-7-5-3-5-3h5p3-2-|
a|----------------------------------------------------|
e|----------------------------------------------------|

Main Part 2


e|-----------------------------------------------8-6-3-|
b|-10-8-10-3~--3-5\10-10-8-5--10-8-10-3~--3-5\10-------|
g|-----------------------------------------------------|
d|-----------------------------------------------------|
a|-----------------------------------------------------|
e|-----------------------------------------------------|


e|-------------------------------------------------------------|
b|-10-8-10--3-5--10-8-10-5-6--10-8-10~-10-11-10-8-6-8~-6h8p6-5-|
g|-------------------------------------------------------------|
d|-------------------------------------------------------------|
a|-------------------------------------------------------------|
e|-------------------------------------------------------------|

Outro:

e|----------------------------------------------------|
b|----------------------------------------------------|
g|------------------------------------------5-3-0-----|
d|-7-5-7-0-0-2\7-7-5-2~---7-5-7-0--2\3-3\7------------|
a|----------------------------------------------------|
e|----------------------------------------------------|


e|----------------------------------------------------|
b|----------------------------------------------------|
g|----------------------------------------------------|
d|-7p5h7-0-2~--2\3-3\5--5-5-5--3--3h5p3--2------------|
a|----------------------------------------------------|
e|----------------------------------------------------|


e|----------------------------------------------------|
b|-8--8h10p8--8--7h8p7--5--5h6p5--3-5-6\5-3-----------|
g|----------------------------------------------------|
d|----------------------------------------------------|
a|----------------------------------------------------|


Important: The song above is NOT stored on the Chordie server. The original song is hosted at www.guitaretab.com. Chordie works as a search engine and provides on-the-fly formatting. Chordie does not index songs against artists/composers will. To remove this song please click here.

This song is displayed as text-only. Transposing and tuning is only available for chordpro-songs.

Login - add to songbook

Rating click stars to rate

Layout
Accuracy

SHARE PAGE  




You need to log in to post comments