Guitar Tabs, Chords and Lyrics


Take Over The Breaks Over  Fall Out Boy

[F#m]B - [-]  [244222]x24442
C - x35553
A - x02220
E - 022100


Guitar 1: Patrick Stumph
Guitar 2: Joe Trohman


Intro:

Patrick: C#m--G#m-G-F#m--B-C (x2)


Joe:
e|----------------------------------------------------
B|----------------------------------------------------
G|----4----4---4---4------------4----4---4----4-------
D|---------------------------------------------------- (x2)
A|-4-----4---4-----------------------------2-----2--3-
E|--------------4------4--3--2-----2---2--------------



Verse 1:
Baby, [C#m]seasons change but [G#m]people don't
[G]And I'm [F#m]always there waiting in the [B]back room
[C]I'm [C#m]boring but over [G#m]compsenate [G]with
[F#m]Headlines and flash flash [B]flash pho[C]tography
But [C#m]don't pretend you [G#m]ever forgot a[G]bout [F#m]me  [B]  [C]
[C#m]Don't pretend you [G#m]ever forgot a[G]bout [F#m]me  [B]  [C]


Refrain:
Wouldn't you rather be a [A]widow than a [B]divorcee[C]?
[G#m]Style your wake for fashion [C#m]magazines
[A]Widow or a [B]divorcee[C]?
[G#m]Don't pretend [C#m]Don't pretend
[C#m-G#m]       (We don't fight [G]fair)
[F#m-B]       (We don't fight [C]fair)


Verse 2:
They say your [C#m]head can be a [G#m]prison
[G]Then [F#m]these are just conjugal [B]visits[C]
[C#m]People will dis[G#m]sect us [G]till
This [F#m]doesn't mean a thing any[B]more[C]
[C#m]Don't pretend you [G#m]ever forgot a[G]bout [F#m]me  [B]  [C]
[C#m]Don't pretend you [G#m]ever forgot a[G]bout [F#m]me  [B]  [C]


(Repeat Refrain except last 2 lines)


Chorus:
We [E]do it in the dark, with s[B]miles on our faces
[G#m]We're [A]dropped and well concealed in [C#m]secret places[B] (Whoa)
We [E]do it in the dark, with s[B]miles on our faces
[G#m]We're [A]dropped and well concealed in [C#m]secret places[B]


Post chorus:
[C#m-G#m]       (We don't fight [G]fair)
[F#m-B]       (We don't fight [C]fair)
[C#m-G#m]       (We don't fight [G]fair)
[F#m-B]       (We don't fight [C]fair)


Solo:
Patrick: A--B--G#m--C#m (x4)


Joe:
e|---------------------------------------------------------------------------------
B|----------------------------------------------------------------------------2--0-
G|---------2--2-1----1--4-2-1---------------------2--2-1----1--4-2-1---------------
D|-----2h4---------4----------1--2------------2h4---------4----------1--2--4-------
A|-2h4------------------------------4--2--2h4--------------------------------------
E|---------------------------------------------------------------------------------

then
e|----7-----7-----7--2h4p2-----7-----7-----7--4h5p4-
B|-5-----5-----4------------4-----4-----5-----------
G|--------------------------------------------------
D|--------------------------------------------------
A|--------------------------------------------------
E|--------------------------------------------------

then
e|----7-----7-----7--2h4p2--------0--2-2-2-2-2-2----
B|-5-----5-----4------------2--4--------------------
G|--------------------------------------------------
D|--------------------------------------------------
A|--------------------------------------------------
E|--------------------------------------------------



(Repeat Chorus)


Joe: very fast lead at 2:54
e|-----------------2h4-5p4-0---
B|-----------2h4-5-----------0-
G|-----1h2-4-------------------
D|-2h4-------------------------
A|-----------------------------
E|-----------------------------



Outro:
We don't fight [E]fair With s[B]miles on our faces
[G#m]We're [A]dropped and well concealed in [C#m]secret places
[B]  We don't fight [E]fair
(Don't pretend you ever forgot about [B]me)
We don't fight [G#m]fair
[A]  (Don't pretend you ever forgot about [C#m]me)
[B]  We don't fight fair

Important: The song above is NOT stored on the Chordie server. The original song is hosted at www.guitaretab.com. Chordie works as a search engine and provides on-the-fly formatting. Chordie does not index songs against artists'/composers' will. To remove this song please click here.

Text color:
Chord color:
Chord grids: 
Font size:    
Page size: 

A B C C#m E F#m G G#m
variations - click chord images

Login - add to songbook

Transpose chords

Tuning

Rating click stars to rate

Layout
Accuracy

SHARE PAGE  




You need to log in to post comments