Chordie logo


Its Not A Side Effect Of The Cocaine I Am Thinking It Must Be Love   Fall Out Boy



--------------------------------------------------------------------------------| It's 
A Side Effect Of The Cocaine, I'm Thinking It Must Be Love - Fall Out Boy
--------------------------------------------------------------------------------|
Tabbed by: adslam3
Email:

Tuning: Standard
NOTE: Strumming is NOT exact!
INTRO
e|-0-0-0-0--0-0-0-0--0---0-0-0-0--0-0-0-0--0--------------------------------|
B|-0-0-0-0--0-0-0-0--0---0-0-0-0--0-0-0-0--0--------------------------------|
G|-6-6-4-4--6-6-4-4--9---6-6-4-4--6-6-4-4--4--------------------------------|
D|-4-4-4-4--4-4-4-4--9---4-4-4-4--4-4-4-4--4--------------------------------|
A|-0-0-0-0--0-0-0-0--x---0-0-0-0--0-0-0-0--x--------------------------------|
E|-0-0-0-0--0-0-0-0--9---0-0-0-0--0-0-0-0--4--------------------------------|

VERSE
Play this 2 times
e|-0-0-0-0-0-0-0-0-0---0-0-0-0-0-0-0-0-0------------------------------------|
B|-0-0-0-0-0-0-0-0-0---0-0-0-0-0-0-0-0-0------------------------------------|
G|-6-6-6-6-4-4-4-4-9---6-6-6-6-4-4-4-4-4------------------------------------|
D|-4-4-4-4-4-4-4-4-9---4-4-4-4-4-4-4-4-4------------------------------------|
A|-0-0-0-0-0-0-0-0-x---0-0-0-0-0-0-0-0-x------------------------------------|
E|-0-0-0-0-0-0-0-0-9---0-0-0-0-0-0-0-0-4------------------------------------|

Pre-chorus: "But I'm coming oooout"   (listen for the change)
e|-0----------------0-------------------------------------------------------|
B|-0----------------0-------------------------------------------------------|
G|-4----------------9-------------------------------------------------------|
D|-4----------------9-------------------------------------------------------|
A|-x----------------x-------------------------------------------------------|
E|-4----------------9-------------------------------------------------------|

Chorus: "Put your head between..."
e|-0-0-0-0--0-0-0-0--0-0-0-0--0---------------------------------------------|
B|-5-5-5-5--5-5-5-5--5-5-5-5--5---------------------------------------------|
G|-4-4-4-4--4-4-4-4--4-4-4-4--4---------------------------------------------|
D|-4-4-4-4--x-x-x-x--x-x-x-x--2---------------------------------------------|
A|-0-0-0-0--4-4-4-4--2-2-2-2--0---------------------------------------------|
E|-0-0-0-0--0-0-0-0--0-0-0-0--0---------------------------------------------|
NOTE: On second time, go back to intro after 04x450!!

VERSE 2 is same as verse 1

Prechorus is same as before but with pull-offs on 4x4400 instead of strumming!!! The 
is played twice this time.

End on Chorus. The last chord with pull offs is 02x450

| /  slide up
| \  slide down
| h  hammer-on
| p  pull-off
| ~  vibrato
| +  harmonic
| x  Mute note


Important: The song above is NOT stored on the Chordie server. The original song is hosted at www.guitaretab.com. Chordie works as a search engine and provides on-the-fly formatting. Chordie does not index songs against artists/composers will. To remove this song please click here.

This song is displayed as text-only. Transposing and tuning is only available for chordpro-songs.

Login - add to songbook

Rating click stars to rate

Layout
Accuracy

SHARE PAGE  




You need to log in to post comments