Hell Have To Go

Bryan Ferry

 AD
|------------------------2---|
|--------2---------------3---|
|--------2---------------2---|
|--------2------------0--0---|
|--------0------2b3b2--------|
|-2b3b2----------------------|


Intro:
|--------------------------------------2------------2---|
|--------------------------------------3------------3---|
|--------------------------------------2------------2---|
|---0--2--2h4--4--4b5b4--4--2----0--2--0---------0--0---|
|-0----------------------------0-----------2b3b2--------|
|-------------------------------------------------------|


 DGD
 Put your sweet lips a little closer to the phone
 DAA7
 Let's pretend that we're together all alone
 DD7G
 I'll tell the man to turn the jukebox way down low
 DAD
And you can tell your friend there with you, he'll have to go.

 G
        You can't say the words I want to hear
 D
        When you're with another man
 G
        If you Love me, answer yes or no
 DA
        Darling, I will understand.

 DGD
 Put your sweet lips a little closer to the phone
 DAA7
 Let's pretend that we're together all alone 
 DD7G
 I'll tell the man to turn the jukebox way down low
 DAD
And you can tell your friend there with you, he'll have to go.

SOLO
 DAD

|--------------------------------------------------------------------------------|
|----------------------------------------------------------------------7s8-7-5---|
|--------------------2-4-2h4p2------------2---2h4-2h4-2----------------6s7-6-4---|
|---0-2-2h4--2-4-4s5----------------4-4s5---------------0--4s5s4-4-2-------------|
|--------------------------------------------------------------------------------|
|--------------------------------------------------------------------------------|
|----------------------------------------------------------------------------2---|
|----------------------3-----------------------------------------------------3---|
|---------------2-2--4---4------7s3------------------------------------------2---|
|----0h2p0--4s5------------5------------0-2h4-4-4h5-4h5-4-2--0h2p0---------0-0---|
|-0h2-------------------------------0h2------------------------------2b3b2-------|
|--------------------------------------------------------------------------------|


 G
        You can't say the words I want to hear
 D
        When you're with another man
 G
        If you Love me, answer yes or no
 DA
        Darling, I will understand.
 DGD
 Put your sweet lips a little closer to the phone
 DAA7
 Let's pretend that we're together all alone 
 DD7G
 I'll tell the man to turn the jukebox way down low
 DAD
And you can tell your friend there with you, he'll have to go.
 DAD
Yes you can tell your friend there with you, he'll have to go.


A A7 D D7 G
variations - click chord images
Transpose chords:
Tuning:
Cool service:
View: Size:
A  A  A
Rating:
Layout:
  • Currently 2.6/5 Stars.
  • 1
  • 2
  • 3
  • 4
  • 5
 
Accuracy:
  • Currently 2.5/5 Stars.
  • 1
  • 2
  • 3
  • 4
  • 5
 
click stars to rate
Chordie recommends:
Get acoustic guitar lessons and electric guitar lessons at JamPlay.com
Songbook:
Login to add this song to your songbook
Support the artist
Preview/buy this song
MSN Music
Why this non-profit ad?

 
login to add comments/video/corrections