Chordie logo


San Francisco Girls  Fever Tree



          (Scott Holtzman - Vivian Holtzman - Michael [Knust])
Intro:

        harpsichord arr. for guitar [2X; faster second time]

v v v v v v v v
	-0---------------|-----2-0---------|
	-0---0-2---------|-0---------------|
	-----------------|-----------------|
	-----------------|-----------------|
	-0---------------|-0---------------|
	-----------------|-----------------|


Verse:

        [2: Cause] O[A]ut there it's s[G]ummertime
        [A]  Milk and honey d[C]ays
        [A]Oh, San Francisco g[G]irls with
        [A]  San Francisco w[Em]ays   [A]

        fuzz guitar [4X; faster eacb time]
        [A] v   v   v   v     v   v   v   v
	-----------------|-----------------|
	---------------15|-14--------------|
	-----------------|-----14--16------|
	-14----1617------|------------(17)-|
	-----------------|-----------------|
	-----------------|-----------------|

                                       ^^ [1, 3 only]

harpsichord arr. for gtr [enters 2nd time, doubling fuzz guitar
a fourth higher]

v v v v v v v v
	---------------15|-14--------------|
	-----------------|-----15--17------|
	-14----1617------|------------(17)-|
	-----------------|-----------------|
	-----------------|-----------------|
	-----------------|-----------------|

                                       ^^ [3 only]

        [2: to coda] 

Bridge:

        D[A]on't try to s[C]top me girl, [G/B]you can't h[D]ave your w[A]ay
        D[A]on't try to s[C]top me girl, [G/B]nothin' y[D]ou can s[A]ay
        L[A]ive like you w[C]anna live and [G/B]stay where you w[D]anna [A]  stay
        [A]I just gotta [G]go and g[D]et back [C]   [E7]   to the B[A]ay

So you love me girl, you're just in my way
Don't try to stop me girl, I'm movin' out today
Do what you wanna do and play what you wanna play
I just gotta go and get back to the Bay

Guitar solo (16 bars over A):

         C [N.C.]
v v v v
	-----------------|
	-15b17-----------|
	-----------------|
	-----------------|
	-----------------|
	-----------------|


[repeat from start of verse] 

Coda:

At least two fuzz guitars: one sustains a G and bends it up to A
at the end; another sustains a pre-bent B and releases it down
to A; and there may be a third one sustaining an A throughout.
Far out, maaaaaannnn...

guitar 1:

        (A) [N.C.]
	-----------------------------------|
	-----------------------------------|

-12~~~~~~~~~~~~~~~~~~~~~~~~~~~~b14-
	-----------------------------------|
	-----------------------------------|
	-----------------------------------|


guitar 2:

        (A) [N.C.]
	-----------------------------------|
	-----------------------------------|

-16~~~~~~~~~~~~~~~~~~~~~~~~~~~~r14-
	-----------------------------------|
	-----------------------------------|
	-----------------------------------|

^^ pre-bent

[repeat verse (instrumental); fade] 

-- another ace 60's tab from Andrew Rogers

Important: The song above is NOT stored on the Chordie server. The original song is hosted at www.guitaretab.com. Chordie works as a search engine and provides on-the-fly formatting. Chordie does not index songs against artists/composers will. To remove this song please click here.

Text color:
Chord color:
Chord grids: 
Font size:    
Page size: 

A C D E7 Em G G/B
variations - click chord images

Login - add to songbook

Transpose chords

Tuning

Rating click stars to rate

Layout
Accuracy

SHARE PAGE  




You need to log in to post comments