Guitar Tabs, Chords and Lyrics


Isles   Fleet Foxes



Tune bottom E up to an F
Key - F
Time signature - 6/8 (1 bar = 3 quavers)

Intro.                        Verse.

e|------|------|------|--1---|1-----|1-----|1-----|1-1---|------|------|
B|--1-3-|4---3-|1-----|----1-|--1---|--1---|--1---|----1-|6-----|6-----|
G|3-----|------|--3-0-|02----|------|------|------|------|--3---|--3---|
D|3-3-3-|3---3-|3-3---|------|----3-|----3-|----3-|------|----3-|----3-|
A|------|------|------|------|------|------|------|------|6-----|6-----|
F|------|------|------|------|0-----|0-----|0-----|0-----|------|------|

e|------|------|------|------|------|------|------|------|------|------|
B|6-----|6-----|6-----|6-----|6-----|6-----|6-----|6-----|5-----|5-----|
G|--3---|--3---|--3---|--3---|--3---|--3---|--3---|--3---|--3---|--3---|
D|----3-|----3-|----3-|----3-|----3-|----3-|----3-|----3-|----3-|----3-|
A|6-----|6-----|5-----|5-----|5-----|5-----|4-----|4-----|3-----|3-----|
F|------|------|------|------|------|------|------|------|------|------|

e|3-----|3-----|5-----|5-----|1-1---|1-1---|1-1---|1-----|1-----|0-----|
B|--3---|--3---|--4---|--4---|----3-|----3-|----3-|--3---|--3---|--1---|
G|----5-|----5-|----5-|----5-|------|------|------|----3-|----3-|----3-|
D|------|------|------|------|------|------|------|------|------|------|
A|------|------|------|------|1-----|1-----|1-----|1-----|3-----|3-----|
F|0-----|0-----|0-----|0-----|------|------|------|------|------|------|

e|1-----|0-----|1-1---|------|1-1---|1-1---|
B|--3---|--1---|----1-|------|----1-|----1-|
G|----3-|----0-|------|----5-|------|------| Then repeat from verse 1.
D|------|------|------|--3---|------|------|
A|3-----|3-----|------|6-----|------|------|
F|------|------|0-----|------|0-----|0-----|

Chorus.

e|------|------|------|------|0-----|------|------|------|5-----|------|
B|------|------|------|------|------|------|------|------|--8-6-|5-----|
G|------|------|------|------|--3---|--3---|--3---|------|------|--7-5-|
D|------|------|------|------|----3-|------|------|--3---|------|------|
A|------|------|------|--3---|------|------|------|----3-|------|------|
F|0-0-0-|0-0-0-|0-0-0-|0---0-|0---0-|0---0-|0---0-|0-----|5-5-5-|5-5-5-|

e|------|5-----|5-----|------|------|------|
B|--6-8-|------|--8-6-|5-----|------|------|
G|7-----|------|------|--7-5-|7-----|7-----| Then repeat verse and chorus
D|------|--8---|------|------|------|------| again.
A|------|----8-|------|------|--8---|--8---|
F|5-5-5-|5-----|5-5-5-|5-5-5-|5---7-|5---7-|

Instrumental section.

e|----5-|------|----5-|------|----5-|------|------|------|----8-|5-----|
B|------|8---6-|------|8---6-|------|8---6-|------|------|6-----|----8-|
G|7-----|------|7-----|------|7-----|------|7-----|7-----|--7---|------|
D|--8---|--8---|--8---|--8---|--8---|--8---|--8---|--8---|------|--8---|
A|------|------|------|------|------|------|----8-|----8-|------|------|
F|5---5-|5---5-|5---5-|5---5-|5---5-|5---5-|5-----|5-----|5---5-|0---0-|

                                                  Coda.

e|----8-|5-----|----8-|5-----|------|1-1---|1-1---|------|------|------|
B|6-----|----8-|6-----|----8-|6---6-|------|------|------|------|------|
G|--7---|------|--7---|------|------|----3-|----3-|------|------|------|
D|------|--8---|------|--8---|--8---|------|------|------|------|------|
A|------|------|------|------|---8--|3-----|------|------|------|------|
F|5---5-|0---0-|5---5-|0---0-|0---0-|0-----|0-----|0-0-0-|0---0-|0-0-0-|

e|--1---|
B|--1---|
G|--2---|
D|--3---|
A|--3---|
F|0-0---|

This is probably a bit harder than it needs to be...it's almost certainly going to be in 
different tuning and/or with a capo, but if you can make the stretches then with a bit 
practice it should be fine.

Thanks very much,



Important: The song above is NOT stored on the Chordie server. The original song is hosted at www.guitaretab.com. Chordie works as a search engine and provides on-the-fly formatting. Chordie does not index songs against artists/composers will. To remove this song please click here.

This song is displayed as text-only. Transposing and tuning is only available for chordpro-songs.

Login - add to songbook

Rating click stars to rate

Layout
Accuracy

SHARE PAGE  




You need to log in to post comments