Chordie logo


Something I Can Never Have   Flyleaf



SOMETHING I CAN NEVER HAVE [Nine Inch Nails Cover] - Flyleaf
Tabbed by: silver_and_cold
Email: deranged_smiley_faces@hotmail.com

heya if it's confusing to you or you have some corrections please comment. ^^

Tuning: Drop D [e b g d a d]

Intro
Guitar 1: 
e|------------------------------------------------------------|
B|------------------------------------------------------------|
G|--------12----12----12----12----12----12----12-13-12--------|[Repeat throughout the song]
D|-----10----10----10----10----10----10----10-----------------|
A|------------------------------------------------------------|
D|------------------------------------------------------------|

Guitar 2: 
e|-------------------------------|
B|-------------------6p5---------|
G|----5~---7----3----------------|Play At: 0:11, 0:55, 1:40
D|--5-------------3h5------------|
A|-------------------------------|
D|-------------------------------|

Play the 'B[string]:6p5' part at the same time as the 'G[string]:13-12' part [in the intro riff].
It also plays by itself at some parts.

Chorus: 
Guitar 2 [Guitar 1 still plays the Intro part in this]
e|------------------------------|
B|------------------------------|
G|----------9-----10------------|
D|--10------9-x8--10-x8---------|
A|--10-x16--7------8------------|
D|--10--------------------------|


At 3:44 [that's before the third chorus]
e|--------------------|
B|--------------------|
G|--12-12-12-12-------|
D|--x--x--x--x--------|
A|--10-10-10-10-------|
D|--------------------|


Outro [Like Chorus]
Guitar 2:
e|------------------------------|
B|------------------------------|
G|----------9-----10------------|
D|--10------9-x8--10-x8---------|
A|--10-x16--7------8------------|
D|--10--------------------------|

e|--------------|
B|--------------|
G|--------------|
D|--10----------|
A|--10-x16------|
D|--10----------|

end in: [for Guitar 2]
e|-------|
B|-------|
G|--9~---|
D|--9~---|
A|--7~---|
D|-------|

Guitar 1 fades out [playing the intro riff]


Order:
Intro
Verse [Guitar 1 mostly plays by itself]
Pre Chorus: Play the Chorus part
Chorus x2
Verse 2 [Guitar 1 mostly plays by itself here as well]
Chorus x4
Coda [like Verse]
Chorus x4


Important: The song above is NOT stored on the Chordie server. The original song is hosted at www.guitaretab.com. Chordie works as a search engine and provides on-the-fly formatting. Chordie does not index songs against artists/composers will. To remove this song please click here.

This song is displayed as text-only. Transposing and tuning is only available for chordpro-songs.

Login - add to songbook

Rating click stars to rate

Layout
Accuracy

SHARE PAGE  




You need to log in to post comments