My Smile Is A Rifle

John Frusciante

 CE
e|-----------------------------------|
B|-----------------------------------| Bar One
G|-7----9--7----9--7--(9)------------|
D|-------------------------9---------|
A|-----------------------------------|
E|-8-------8-------8---0---0---------|


 AmE
e|-----------------------------------|
B|-----------------------8-----------| Bar Two
G|-7----7--7----7--5--7----9---------|
D|-----------------------------------|
A|-----------------------------------|
E|-5-------5-------5-----0-----------|


 GE
e|---5--3----5--3-----5--3-----5--3-----5--3----5--3--0--------|
B|----------------------------------------------------0--------|
G|----------------------------------------------------1--------|
D|-5------5-------5--------5--------5--------5--------2--------|
A|----------------------------------------------------2--------|
E|---3T-----------------------------------------------0--------|


--repeat bars 1 and 2 then 1 again--

 GE
e|-----------------------------0-----------|
B|----3-----3-----3-----3------0-----------|
G|------4-----4-----4-----4----1--------1--|
D|-5------5-----5-----5-----5--2-----------|
A|-----------------------------2-----------|
E|-----------------------------0-----------|


VERSE:

 AmGAmG
e|-------------------------0---0--------------|
B|------5---5--------------5---5--------------| repeat
G|o---------------4--------------------------o| with slight
D|o------------------5---------------5-------o| varation
A|--------------------------------------5-----|
E|---5----5----3--------5----5----3-----------|


CHORUS:
 AmEmAmG
e|----0---0-------0----0-----0---0-----3----3--|
B|----5---5-------5----5-----5---5-----3----3--|
G|---------------------------------------------|
D|---------------------------------------------|
A|---------------------------------------------|
E|-5----5----5-0-----0----5----5----3-----3----|




















Am C E Em G
variations - click chord images
Transpose chords:
Tuning:
Cool service:
View: Size:
A  A  A
Rating:
Layout:
  • Currently 3/5 Stars.
  • 1
  • 2
  • 3
  • 4
  • 5
 
Accuracy:
  • Currently 3/5 Stars.
  • 1
  • 2
  • 3
  • 4
  • 5
 
click stars to rate
Chordie recommends:
Learn how to play guitar at JamPlay.com
Songbook:
Login to add this song to your songbook
Support the artist
Preview/buy this song
MSN Music
Why this non-profit ad?

 
login to add comments/video/corrections