Guitar Tabs, Chords and Lyrics


Por Mi Camino Ire Gotta Go My Own Way  Gabriella and Troy

E------------------------------------------------------------------|


B----------5------------5-----------------5-------------5----------|


G------------2------------2----------------2--------------2--------|

D-------2-------------2---------2------2--------------2------------|
A---2h4-----------4h5---------5---5p4-----------4p2----------------|
E------------------------------------------------------------------|
E---------------------------------------------------------------------0--|
B-------------------5--------------5----------------------------5-----0--|
G---------------------2--------------2-----------------------2-----------|
D----2-----------2----------------2-----------2-2-------2-------------2--|
A--2---2-----2h4--------------4h5--------------5-------------------------|
E------------------------------------------------------------------------|
[Dm]no es facil de[F#m]cir
[E5]se que es lo mejor que puedo hacer.
[D5]vas a estar bien.
Coro:
[F#m]Tendre que alej[D]arme yo m[A]isma s[E]e
[F#m]mi sitio no es [D]este lo d[B]ebes enten[F#m]der
[Dm]talvez mi luga[F#m]r yo encont[E]rare
[Bm]almenos por ho[F#m]y por mi [Dm]camino ire.


intro otra vez.

Verso 2: Continua con el intro de fondo
Lo quiero todo olvidar
pero fui a las nuves y volvi a caer
otra vez otro color se hace gris
es dificil ver que todo aqui
lento se espumo

Pre-Coro:
[D]de aqui ya me v[F#m]oy
[A]se que es lo mejor que [C#5]puedo ha[D]cer
[E]vas a estar bien.

Coro 2:

[F#m]Tendre que alej[D]arme yo m[A]isma s[E]e
[F#m]mi sitio no es [D]este lo d[B]ebes enten[F#m]der
[Dm]talvez mi luga[F#m]r yo encont[E]rare
[Bm]almenos por ho[F#m]y por mi [Dm]camino ire.

Verso 3:
[D]  [E]                                   
what about us?  [A]   [Bm]
what about everythings we´[D]ve been thougth?
como confiar?[A]     [F#m]
you know i never wanted to tr[F#m]ust yo[E]u
y que hay se mi?[G#]   [E]  [A]
w[B]hat am i supposed to do?[D]
voy[D] a extrañarte por sie[E]mpre.

Ultimo coro:

[F#m]Tendre que alej[D]arme yo m[A]isma s[E]e
[F#m]mi sitio no es [D]este lo d[B]ebes enten[F#m]der
[Dm]talvez mi luga[F#m]r yo encont[E]rare
[Bm]almenos por ho[F#m]y por mi [Dm]camino ire.

[F#m]Tendre que alej[D]arme yo m[A]isma s[E]e
[F#m]mi sitio no es [D]este lo d[B]ebes enten[F#m]der
[Dm]talvez mi luga[F#m]r yo encont[E]rare
[Bm]almenos por ho[F#m]y
por mi camino ire.
NOTA:
por mi camino ire estas tres ultimas se toca el intro de
fondo.
por mi camino ire

Important: The song above is NOT stored on the Chordie server. The original song is hosted at www.guitaretab.com. Chordie works as a search engine and provides on-the-fly formatting. Chordie does not index songs against artists'/composers' will. To remove this song please click here.

Text color:
Chord color:
Chord grids: 
Font size:    
Page size: 

A B Bm C#5 D D5 Dm E E5 F#m G#
variations - click chord images

Login - add to songbook

Transpose chords

Tuning

Rating click stars to rate

Layout
Accuracy

SHARE PAGE  




You need to log in to post comments