Chordie logo

Hemingway  Garou

e----------------------------------------------


B-----3-0----------3-------3-0-----------------


G---------0---0---2-2----------0---0----0------  (repeat)


D---2--------2-2-0-------2--------2-2-0--4-0-2-


A--2--------3-----------2--------3-------------


E-0--------------------0-----------------------





e-----1-------------------1-------------


B----0-0----------3------0-0---------3--


G---0-------0----2-2----0-------0---2-2-


D----------2-2-0---------------2-2-0----


A---------3-------------------3---------


E-3-------------------3-----------------


[and]                                     
e-----1------------------2-
B----0-0-----------------0-
G---0-------0------------2-
D----------2-2-----------1-
A---------3--------------2-
E-3------------------------


em7_em
De l'Afrique
C D em7_em C D
Il reste quelques soleils gris et sales
em7_em
De l'Amérique
C D em7_em C D
Un drapeau qui perd sa guerre des étoiles
[G]D' la politique
[C] Des idées [D]qui ne brillent que [G]par l'argent [C]      [D]
[G]De la musique
[C] Quelques DJ's pour trois mill[B]iards de gens


Refrain:

n.c. em
C' n'est pas " L'adieu aux armes"
C D em____
C'est un monde qui disparaît
C D em____
Les missiles n'ont pas le charme
[C]  Du vieux fusil d'Heming[B]way
B____________________ em____
Et "Pour qui sonne le glas"
C D em____
Dans ce monde "anyway"
C D em____
Chacun de nous finira
[C]  Comme le vieil Heming[B]way

intro: em

em7_em
Du Grand Nord
C D em7_em C D
Restent quelques chercheurs d'or faméliques
em7_em
D' nos corps à corps
C D em7_em C D
D' l'amour enrobé de matière plastique
[G]Des conquistadors
[C] Plantés dev[D]ant leurs écrans [G]numériques   [C]      [D]
[G]Des cons qui s'adorent
[C] J'en connais plus que de femme[B]s érotiques


n.c. em
C' n'est pas " L'adieu aux armes"
C D em____
C'est un monde qui disparaît
C D em____
Les missiles n'ont pas le charme
[C]  Du vieux fusil d'Heming[B]way
B____________________ em____
Et "Pour qui sonne le glas"
C D em____
Dans ce monde "anyway"
C D em____
Chacun de nous finira
C B____
Comme le vieil Hemingway

Intro: n.c.


n.c. f#m
C' n'est pas " L'adieu aux armes"
D E f#m____
C'est un monde qui disparaît
D E f#m____
Les missiles n'ont pas le charme
[D]  Du vieux fusil d'Heming[C#]way
C#___________________ em____
Et "Pour qui sonne le glas"
D E f#m____
Dans ce monde "anyway"
D E f#m____
Chacun de nous finira
D C#____
Comme le vieil Hemingway

Important: The song above is NOT stored on the Chordie server. The original song is hosted at www.guitaretab.com. Chordie works as a search engine and provides on-the-fly formatting. Chordie does not index songs against artists/composers will. To remove this song please click here.

B C C# D G
variations - click chord images

Login - add to songbook

Transpose chords

Tuning

Rating click stars to rate

Layout
Accuracy

SHARE PAGE  

You need to log in to post comments