Guitar Tabs, Chords and Lyrics


First Time Ever  George Michael

----------------------------------------------------------------------



     [G]          [Am]        [D]              
E||---------3-------0------2-----|
B||-----3-----------1------3-----|
G||-------4-------2------2-------|
D||------------2-------0---------|
A||------------------------------|
E||--3---------------------------|


     [G]            [Am]       [D]             
E||-----3-5-7--------0------2----|
B||-----------3------1------3----|
G||----------------2------2------|
D||--------------2------0--------|
A||------------------------------|
E||--3---------------------------|


Verse:

        [Am]                                                           
E||----------0--|
B||------1------|
G||----2---2----|
D||-------------|
A||--0----------|
E||-------------|


         [D]                                                          
E||----------2--|
B||------3------|
G||----2---2----|
D||--0----------|
A||-------------|
E||-------------|

                   [G]                                                
E||----------3----------------7---5----|
B||------3-------3--------3------------|
G||----4---4---4---4----4---3---4---4--|
D||------------------------------------|
A||------------------------------------|
E||--3----------------3----------------|

                   [Em]                                                
E||----------0---------------0---------|
B||------0-------0-------0-------0-----|
G||----0---0---0---0---0---0---0---0---|
D||------------------------------------|
A||------------------------------------|
E||--0---------------0-----------------|

          [Bm]                                                         
E||----------2--------|
B||------3-------3----|
G||----4---4---4---4--|
D||-------------------|
A||--2----------------|
E||-------------------|

                   [C]                                                
E||----------0---------------0---------|
B||------1-------1-------1-------1-----|
G||----0---0---0---0---0---0---0---0---|
D||------------------------------------|
A||--3---------------3-----------------|
E||------------------------------------|

            [D#]                                                       
E||-----------5--------|
B||-------7-------7----|
G||-----7---7---7---7--|
D||--------------------|
A||--------------------|
E||--5-----------------|

                     [F]                                             
E||-----------1----------------1--------|
B||-------1-------1--------1-------1----|
G||-----2---2---2---2----2---2---2---2--|
D||-------------------------------------|
A||-------------------------------------|
E||--1-----------------1----------------|

verse:

[Am]   The First Time [D]  Ever I S[G]aw Your Face

[Em]   I thought the sun rose in your[Bm]   eye[C]s
And the m[G]oon and the stars [D#]   were the gi[G]fts you gave
Chorus:

[F]   To the dark and endles[G]s  skies, my love

[F]   To the dark and empty[G]  skies
verse:

[Am]   The first time ever [D]  i kis[G]sed your mouth

[Em]   I felt the earth move in my[Bm]  ha[C]nds
Like the t[G]rembling heart [D#]   of a c[G]aptive bird
Chorus:

[F]  That was there at my co[G]mmand, my love

[F]  That was there[G]
verse:

[Am]The first time [D]  i ever l[G]ay with you

[Em]   And felt you heart so close to[Bm]  mi[C]ne
[G]   And i knew [D#]  our joy [G]  would fill the world
Chorus:

[F]   And would last till[G] the and of time, my love

[F]   It would last [G]  till the and of time
Outro:

[Am]    The first[Am]   time ever i s[G]aw  [D#]   your f[G]ace [F]   [G]

[F]   Your face,[G]  your face
END

Atte: Lepus Gallagher

Important: The song above is NOT stored on the Chordie server. The original song is hosted at www.guitaretab.com. Chordie works as a search engine and provides on-the-fly formatting. Chordie does not index songs against artists'/composers' will. To remove this song please click here.

Text color:
Chord color:
Chord grids: 
Font size:    
Page size: 

Am Bm C D D# Em F G
variations - click chord images

Login - add to songbook

Transpose chords

Tuning

Rating click stars to rate

Layout
Accuracy

SHARE PAGE  




You need to log in to post comments