Chordie logo

99 RED BALLOONS     Goldfinger


style="COLOR: #000000; FONT-SIZE: 11px;">99 red balloons by Goldfinger or Nina Hagen
intro 1. guitare
e|--------------------------------|
b|--------------------------------|
g|--------------------------------|
d|---2-----4-----7-----9----------|
a|---2-----4-----7-----9----------|
e|---0-----2-----5-----7----------|
      E       F#    A       B


 2.guitare:

E|--------------------------------------------|
B|--------------------------------------------|
G|--------------------------------------------|
D|---2---------4---------7----------9---------|
A|---2x14------4x14------7x14-------9x14------|
E|---0---------2---------5----------7---------|
   Pm......................................................
Play this twice.Then the first guitare stops and the second proceed to the verse.Listen to the cd and find out how many times you should play it. Then play this:

1.guitare

e|------------------------------------------------|
b|------------------------------------------------|
g|---------9--------------------------------------|
d|---------9—play it fast and ? many times--------|
a|---------7--------------------------------------|
e|------------------------------------------------|

2.guitare:

e|---------------------|
b|---------------------|
g|---9—9----6----------|
d|---------------------|
a|---------------------|
e|---------------------|

and then:

e|-------------------------------|
b|-------------------------------|
g|-------------------------------|
d|-2-2----2----------------------|
a|------4----4-------------------|
e|---------------2—4—2—0---------|

e|---------------------------------------|
b|---------------------------------------|
g|-----------------4----4----4-----------|
d|-2-2----2--------4----4----4-----------|
a|------4----4-----2----2----2-----------|
e|---------------------------------------|
Play it 4 times,
and then play like the 2. guitare on the intro, but not palmed muted.
E|--------------------------------------------|
B|--------------------------------------------|
G|--------------------------------------------|
D|---2---------4---------7----------9---------|
A|---2x14------4x14------7x14-------9x14------|
E|---0---------2---------5----------7---------|
Then the solo:
E|-2—4—0—4—2—0------4—2—-0---0----0-2----------------|
B|--------------2----------2----2--------------------|
G|---------------------------------------------------|
D|---------------------------------------------------|
A|---------------------------------------------------|
E|---------------------------------------------------|


E|-2—4—0—4—2—0-----4—2—0--0---7---4—2—4--------------|
B|-------------2---------2---------------------------|
G|---------------------------------------------------|
D|---------------------------------------------------|
A|---------------------------------------------------|
E|---------------------------------------------------|


The outro is this:
E|--------------------------------------------|
B|--------------------------------------------|
G|--------------------------------------------|
D|---2---------4---------7----------9---------|
A|---2x14------4x14------7x14-------9x14------|
E|---0---------2---------5----------7---------|
   Pm......................................................



Important: The song above is NOT stored on the Chordie server. The original song is hosted at www.guitaretab.com. Chordie works as a search engine and provides on-the-fly formatting. Chordie does not index songs against artists/composers will. To remove this song please click here.

This song is displayed as text-only. Transposing and tuning is only available for chordpro-songs.

Rating click stars to rate

Layout
Accuracy

SHARE PAGE  



You need to log in to post comments