Guitar Tabs, Chords and Lyrics


7th Of Last Month  Goo Goo Dolls



e --3--3-3--3--3-3--3--3-3------3--3-3--3--3-3--3--3-3--


B --3--3-3--3--3-3--3--3-3------3--3-3--3--3-3--3--3-3--


G --0--0-0--0--0-0--0--0-0------0--0-0--0--0-0--0--0-0--


D --0--0-0--0--0-0--0--0-0------0--0-0--0--0-0--0--0-0--


A --2-------X-------3-----------2-------X-------3-------


E --3-------1-------X-----------3-------1-------X-------


e ------------------------------------------------------


B ------------------------------------------------------


G ----0-0-----0-0-----0-0---------0-0-----0-0-----0-0---


D ---0---0---0---0---0---0-------0---0---0---0---0---0--


A ------------------3-----3-3-0-----------------3-------


E --3-----3-1-----1-------------3-----3-1-----1---------

[A5-G5-F5]         [A5-B5-C5]E5   D5   C5-B5-A5-B5-C5-D5 (3x)
[E5]     [D5]     [C5-B5-A5]           [G5]   (lead enters)
F5-C5-G5-G5 (4x)
[A5-G5-F5]         [A5-B5-C5]E5   D5   C5-B5-A5-B5-C5-D5 (3x)
[E5]     [D5]     [C5-B5-A5]           [G5]   Outro:
Fade out playing intro
This file is copyright goo@soong.heinous.net and Heidi, 1998. You
are free to use it for your personal or educational use, but permission
must be granted to post this transcription. Thank you.

Important: The song above is NOT stored on the Chordie server. The original song is hosted at www.guitaretab.com. Chordie works as a search engine and provides on-the-fly formatting. Chordie does not index songs against artists'/composers' will. To remove this song please click here.

Text color:
Chord color:
Chord grids: 
Font size:    
Page size: 

D5 E5 G5
variations - click chord images

Login - add to songbook

Transpose chords

Tuning

Rating click stars to rate

Layout
Accuracy

SHARE PAGE  




You need to log in to post comments