Guitar Tabs, Chords and Lyrics


Are You Listening  Greeley Estates

[G#]C# [-]-  [466544]x46664
Eb - x68886
Cm - x35543
Bb - x13331
C#m - x46654


Intro: Bbm--G#--C#--Eb



Verse 1: Sing
I've [Bbm]tried to [G#]tell you that I [C#]love you
[Eb]  So many times before
[Bbm]You never [G#]let me be a part of [C#]your life
[Eb]  If you only knew


Verse 2: Scream
I've [Bbm]tried so hard to be [G#]someone that you [C#]want
[Eb]  But now I'm through
Did [Bbm]you forget about [G#]all the times that we [C#]had
[Eb]  Where did they go


Chorus 1:
[Cm-Eb-G#]       Is a[Eb]ny-[Bb]one [Cm]in there
Does [Eb]this[G#] make [Bb]any [Cm]sense
It's so useless[G#]
Try[Eb]ing [Bb]to [G#]get your attention


Verse 3: Sing
So [Bbm]this is [G#]it what else can [C#]I do
[Eb]  To show you how I feel
[Bbm]I could be [G#]drowning right in front of [C#]your eyes
[Eb]  And you'd never know


Verse 4: Scream
I'd [Bbm]give up everything to [G#]hold you in my [C#]arms
[Eb]  For one last time
If [Bbm]you choose to walk [G#]out that door then
I'm [C#]not I'm [Eb]not in your way


Chorus 2:
[Cm-Eb-G#]       Is a[Eb]ny-[Bb]one [Cm]in there
Does [Eb]this[G#] make [Bb]any [Cm]sense
It's so useless[G#]
Try[Eb]ing [Bb]to [G#]get you to listen to me


Interlude: Bbm--G#--C#----------------------------------------------|Eb
e|------------------------------------------------------------------|
B|---2---2---2---2---1---1---1---1---4---4---4---4---4---4---4---4--|
G|-3---3---3---3---1---3---1---3-------3------3----0---3---0---3----|
D|---------------------------------3-------3------------------------|
A|------------------------------------------------------------------|
E|------------------------------------------------------------------|



Bridge:
I've [Bbm]tried to [G#]show you that I [C#]love you[Eb]
But [Bbm]you never [G#]let me be a part of [C#]your life[Eb]
[Bbm]I could be [G#]drowning right in front of [C#]your eyes[Eb]
But you'll never know x3


Scream: beat switch to 3/4
[C#m]  Why did you turn your back
We're out of time to fix these issues
Is anybody listening x2


Guitar 2: while doing scream
e|-------------|
B|-------------|
G|-----7p6-----|
D|---------7p4-| many times
A|-4-4---------|
E|-------------|



(Repeat Chorus 1 and 2)


Outro:

Guitar 2:
e|-------------|
B|-------------|
G|-----7p6-----|
D|---------7p4-| x4
A|-4-4---------|
E|-------------|				


Important: The song above is NOT stored on the Chordie server. The original song is hosted at www.guitaretab.com. Chordie works as a search engine and provides on-the-fly formatting. Chordie does not index songs against artists'/composers' will. To remove this song please click here.

Text color:
Chord color:
Chord grids: 
Font size:    
Page size: 

Bb Bbm C# C#m Cm Eb G#
variations - click chord images

Login - add to songbook

Transpose chords

Tuning

Rating click stars to rate

Layout
Accuracy

SHARE PAGE  




You need to log in to post comments