Guitar Tabs, Chords and Lyrics


Take No   Hale



Take No - Hale
Standard Tuning EADGBe

Chords:

A5 - 577x00 or x02200
C#5 - x46600 or 91111x00
F#5 - 244x00 or x9111100
D5 - x57700 or 101212x00

Intro: [A5-C#5]

e|----99-7h9h7-1010----------|------------00-----|
B|------------------9--10-9--|----1010-99----00--|
G|--------------------9------|-------------------| 3x
D|---------------------------|-------------------|
A|--0------------------------|-------------------|
E|---------------------------|--9----------------|

Verse 1: [A5-C#5]

e|--7-7--|--5-4----|------7--|--4-4--|--7-7--|--5-4----|------7--|
B|-------|------5--|--4-5----|-------|-------|------5--|--4-5----|
G|-------|---------|---------|-------|-------|---------|---------|
D|-------|---------|---------|-------|-------|---------|---------|
A|-------|---------|---------|-------|-------|---------|---------|
E|-------|---------|---------|-------|-------|---------|---------|

I've gone away and went through hell and back
I never was and will again 
All the tears I've held inside 
Why it had to be this long 

Refrain: [D5-F#5]

e|--5-5-5-5-5-5-5-5s9-9-9999-9-9--|
B|--------------------------------|
G|--------------------------------|
D|--------------------------------|
A|--------------------------------|
E|--------------------------------|

And I have failed to see

Repeat Intro: [A5-C#5]

e|----99-7h9h7-1010----------|------------00-----|
B|------------------9--10-9--|----1010-99----00--|
G|--------------------9------|-------------------| 2x
D|---------------------------|-------------------|
A|--0------------------------|-------------------|
E|---------------------------|--9----------------|

Verse 2: [A5-C#5]

e|--7-7--|--5-4----|------7--|--4-4--|--7-7--|--5-4----|------7--|
B|-------|------5--|--4-5----|-------|-------|------5--|--4-5----|
G|-------|---------|---------|-------|-------|---------|---------|
D|-------|---------|---------|-------|-------|---------|---------|
A|-------|---------|---------|-------|-------|---------|---------|
E|-------|---------|---------|-------|-------|---------|---------|

I would've wanted you gone 
Ah, but it's just too soon 
All the times I kept you outside 
Why you had to be so strong 

Refrain: [D5-F#5 2x; A5-C#5 2x]

e|----------------------------------------|
B|--9h10h9h10h9h10h9h10h9h10h9h10h9h10h9--|
G|----------------------------------------| 2x
D|----------------------------------------|
A|----------------------------------------|
E|----------------------------------------|

And I have failed to see
These dreams they haunt me back

Praise fate
I'm coming home

Chorus: [A5-C#5]

e|--19-19-19-19--------------|      |--16-16-16-16--------------|
B|--------------21-21-21-21--|      |--------------17-17-17-17--|
G|---------------------------|  3x  |---------------------------|
D|---------------------------|      |---------------------------|
A|---------------------------|      |---------------------------|
E|---------------------------|      |---------------------------|

YOu.....ooh
YOu.....ooh
YOu.....ooh
YOu.....ooh

Refrain: [D5-F#5]

And I have failed to see
These dreams they haunt me back

Adlib: (bass and guitar w/o drums)

Bass:

G|----6--6--6--6--6-----9--11-9--9--11-9--|
D|--77-77-77-77-77-----7--7-----7--7------| 2x
A|-----------------7-9--------------------|
E|----------------------------------------|

Guitar:

e|--------------------------19-19-19-19-19--|
B|--21-21-21-21-21-21-21-21-----------------|
G|------------------------------------------|
D|------------------------------------------|
A|------------------------------------------|
E|------------------------------------------|

Chorus: [A5-C#5]

e|--19-19-19-19--------------|      |--16-16-16-16--------------|
B|--------------21-21-21-21--|      |--------------17-17-17-17--|
G|---------------------------|  3x  |---------------------------|
D|---------------------------|      |---------------------------|
A|---------------------------|      |---------------------------|
E|---------------------------|      |---------------------------|

YOu.....ooh
YOu.....ooh
YOu.....ooh
YOu.....ooh

End Chorus w/ F#5 (x9111100)


- END -


Important: The song above is NOT stored on the Chordie server. The original song is hosted at www.guitaretab.com. Chordie works as a search engine and provides on-the-fly formatting. Chordie does not index songs against artists'/composers' will. To remove this song please click here.

This song is displayed as text-only. Transposing and tuning is only available for chordpro-songs.

Login - add to songbook

Rating click stars to rate

Layout
Accuracy

Jango Player

SHARE PAGE  




You need to log in to post comments