Chordie logo

Perseverance   Hatebreed



intro

   d ---------------------|
   a ---------------------|
   f ---------5-7-8-------|
   c ---------3-5-6-------|
   g 1-0-0-0-0------0-----|
   c 1-0-0-0-0------0-----|
pm     . . . .

verse

     --------------------|
     --------------------|
     --------------------|
     --------------------|
     8/7---0---3-1-0-----|
     8/7---0---3-1-0-----|


Chorus

     --------   -------------------|
     --------   -------------------|
     --------   ---------5-7-8-----|
     --------x6 ---------3-5-6-----|
     1-00----   1-000000-----------|


Important: The song above is NOT stored on the Chordie server. The original song is hosted at www.guitaretab.com. Chordie works as a search engine and provides on-the-fly formatting. Chordie does not index songs against artists/composers will. To remove this song please click here.

This song is displayed as text-only. Transposing and tuning is only available for chordpro-songs.

Login - add to songbook

Rating click stars to rate

Layout
Accuracy

SHARE PAGE  

You need to log in to post comments