Guitar Tabs, Chords and Lyrics


Everyone Says Youre So Fragile   Idlewild



iDLEWiLD
Everyone Says You're So Fragile

Guitar tuned down half a step (Eb, Ab, Db, Gb, Bb, Eb)

Chorus Riff (Heavy distortion)
Eb----------------------------------------------:
Bb----------------------------------------------:
Gb---------------11-9--7---------------9--7--6--:
Db--7--7--7-7-7-----------7--7--7-7-7-----------:
Ab--7--7--7-7-7--9--7--5--7--7--7-7-7--7--5--4--:
Eb--5--5--5-5-5-----------5--5--5-5-5-----------:

:---------------------------------------------------|
:---------------------------------------------------|
:----------------11-9--7---------------7--7--x-x-x--|
:---7--7--7-7-7-----------9--9--x-x-x--7--7--x-x-x--|
:---7--7--7-7-7--9--7--5--9--9--x-x-x--5--5--x-x-x--|
:---5--5--5-5-5-----------7--7--x-x-x---------------| Play x 2

Verse Riff (Clean)						   
/-----4th time, distorted when going into chorus
I'm not that medieval...
Eb------------------------------------------2--2--2-2-2-2--0--0-0--0-0-0----:
Bb--0--2-2-2--0--2-2-2--0--2-2-2--2--2-2-0--2--2--2-2-2-2--0--0-0--0-0-0----:
Gb--2--2-2-2--2--2-2-2--2--2-2-2--2--2-2-2--2--2--2-2-2-2--1--1-1--1-1-1----:
Db--2--2-2-2--2--2-2-2--2--2-2-2--2--2-2-2--4--4--4-4-4-4--2--2-2--2-2-2----:
Ab--0--0-0-0--0--0-0-0--0--0-0-0--0--0-0-0--4--4--4-4-4-4--2--2-2--2-2-2----:
Eb------------------------------------------2--2--2-2-2-2--0--0-0--0-0-0----: Play x 4


Then Play Chorus Riff x 2

Break Rhythm
             Play x 3 			Then play:
   /-------------------------------\ /--------------------------\--|
Eb----------------------------------|------------------------------|
Bb----------------------------------|------------------------------|
Gb---------9--9-x-x-------7--7-x-x--|---------------7--7--7-7-7----|
Db-7--x---------x-x-7--x-------x-x--|-9--9--9-9-9-9-7--7--7-7-7----|
Ab-7--x----7--7-x-x-7--x--5--5-x-x--|-9--9--9-9-9-9-5--5--5-5-5----|
Eb-5--x-------------5--x------------|-7--7--7-7-7-7----------------|

Break Lead (Mainly inaudible in Album Version)
Eb-------------------------------------------|
Bb--17--15-15--15-15-15-14-------------------|
Gb--------------------------14-14--14-14-14--|


Important: The song above is NOT stored on the Chordie server. The original song is hosted at www.guitaretab.com. Chordie works as a search engine and provides on-the-fly formatting. Chordie does not index songs against artists'/composers' will. To remove this song please click here.

This song is displayed as text-only. Transposing and tuning is only available for chordpro-songs.

Login - add to songbook

Rating click stars to rate

Layout
Accuracy

SHARE PAGE  




You need to log in to post comments