Unter Dem Meer

In Extremo

-------------------------------------------------------------------------------

-------------------------------------------------------------------------------

 DDsus4DDsus4CC
e|-----5---------5---------3--------3-------|
B|--------8---------8---------5--------5----|
G|---7---7-----7---7-----5---5----5---5-----|
D|--7-7-------7-7-------5-5------5-5--------|
A|-5---------5---------3--------3-----------|
E|------------------------------------------|


alternatively: (same chords)
e|-----5---------5---------3--0----3--0----|
B|--------3---------3----------------------|
G|---3---2-----3---2-----1---0---1---0-----|
D|--2-2-------2-2-------0-0-----0-0--------|
A|-0---------0---------3-------3-----------|
E|-----------------------------------------|


(Verse 1)
 DDsus4
 Tod bitterer Tod
 DDsus4
 Tod bitterer Tod
 C
 Du Räuber nahmst die Liebste mir
 C
 Und lässt mich leiden fern von ihr
 DDsus4
 Tod bitterer Tod
 DDsus4
 Hast du lebend sie gehasst
 C
 Nun bist du satt von diesen Bissen
 C
 Werd ohne Liebe leben müssen

(Pre-Chorus)
 DG
 Du schleichst so lautlos wie ein Tier
 DG
 Welcher Fluch treibt dich zu mir

(Chorus)
 DG
 Doch über den Wolken
 DG
 Und unter dem Meer 
 DG
 Hinter all deinen Sünden
 A
 Werd ich dich finden
 DG
 Doch über den Wolken
 DG
 Und unter dem Meer 
 DG
 In deinem Heim 
 A
 Wirst du nicht sicher sein

(V2)
 DDsus4
 Tod bitterer Tod
 DDsus4
 Tod bitterer Tod
 C
 Zwei waren wir - doch nur ein Herz
 C
 Wir teilten Liebe, wir teilten Schmerz
 DDsus4
 Tod grausamer Tod
 DDsus4
 Mich errdückt die Tränenlast
 C
 Bis zum Ende werd ich sie suchen
 C
 Bis zum Ende werd ich dich verfluchen

(PC)
 DG
 Du schleichst so lautlos wie ein Tier
 DG
 Welcher Fluch treibt dich zu mir

 DG
 Doch über den Wolken
 DG
 Und unter dem Meer 
 DG
 Hinter all deinen Sünden
 A
 Werd ich dich finden
 DG
 Doch über den Wolken
 DG
 Und unter dem Meer 
 DG
 In deinem Heim 
 A
 Wirst du nicht sicher sein

(Solo)

(Outro)
e|--------------------------------|
B|----5-7--8-5---5-7--8-5---------|
G|---7----------7-----------------|
D|--------------------------------|
A|--------------------------------|
E|--------------------------------|


 D
 Du bist zwar satt von diesen Bissen
 D
 Doch wirst mein Leid bald teilen müssen

--------------------------------------------------------------------------------  				



A C D Dsus4 G
variations - click chord images
Transpose chords:
Tuning:
Cool service:
View: Size:
A  A  A
Rating:
Layout:
  • Currently 2.8/5 Stars.
  • 1
  • 2
  • 3
  • 4
  • 5
 
Accuracy:
  • Currently 3.1/5 Stars.
  • 1
  • 2
  • 3
  • 4
  • 5
 
click stars to rate
Chordie recommends:
Learn how to play guitar at JamPlay.com
Songbook:
Login to add this song to your songbook
Support the artist
Preview/buy this song
MSN Music
Why this non-profit ad?

 
login to add comments/video/corrections