Guitar Tabs, Chords and Lyrics


Warmth   Incubus



Song: The Warmth
Band: Incubus
Tabbed by: Wendell Segundo

I'm 100% sure about this tab. Just listen for the
song for the strumming patterns.
If you have any comments or suggestions,
just email me at Wendell_Segundo@yahoo.com


Intro:

|---------------------------------18------18----|
|--17/--15------15------15----------------------|
|----------17------17------15-15------15--------|
|-----------------------------------------------| (2x)
|-----------------------------------------------|
|-----------------------------------------------|

Then...

|--12--12--12------------------------------------|
|--12--12--12--13--13--13---8--8--8--5--5--5--5--|
|--9---9---9---12--12--12---7--7--7--4--4--4--4--|
|--------------10--10--10---5--5--5--2--2--2--2--|
|------------------------------------------------|
|------------------------------------------------|

Verse:


|---------------------------------18------18----|
|--17/--15------15------15----------------------|
|----------17------17------15-15------15--------|
|-----------------------------------------------| (2x)
|-----------------------------------------------|
|-----------------------------------------------|

Chorus:

|--12--12--12------------------------------------|
|--12--12--12--13--13--13---8--8--8--5--5--5--5--|
|--9---9---9---12--12--12---7--7--7--4--4--4--4--|
|--------------10--10--10---5--5--5--2--2--2--2--| (4x)
|------------------------------------------------|
|------------------------------------------------|

Interlude:

|---------------------------|
|---------------------------|
|---------------------------|
|--9-8-9-8-9-8-8-9----------| (2x)
|---------------------------|
|---------------------------|

Ending Chorus: (Distortion)

|------------------------------------|
|------------------------------------|
|--9-9-9---5-5-5-----------1-1-1-----| (4x)
|--9-9-9---5-5-5---5-5-5---2-2-2-----|
|--7-7-7---3-3-3---5-5-5---2-2-2-----|
|------------------3-3-3---0-0-0-----|




Important: The song above is NOT stored on the Chordie server. The original song is hosted at www.guitaretab.com. Chordie works as a search engine and provides on-the-fly formatting. Chordie does not index songs against artists/composers will. To remove this song please click here.

This song is displayed as text-only. Transposing and tuning is only available for chordpro-songs.

Login - add to songbook

Rating click stars to rate

Layout
Accuracy

SHARE PAGE  




You need to log in to post comments