"yes"; ?> Miss Fely Nimfa Ang Pangalan by Itchyworms - guitar chords, guitar tabs and lyrics - chordie

Miss Fely Nimfa Ang Pangalan

Itchyworms

 EmAm
  May kilala 'kong babae
 DG
  Papalit-palit ng lalake
 EmAm
  Pero hindi naman sabay-sabay
 DG
  Kinakasal sila't naghihiwalay

REFRAIN:
 EAm
  Naka-ilan na siya ngayon
 CG
  Iba-iba, taon-taon
 EmAm
  Apelyido niya'y nadaragdagan
D G (pause)
Fely Nimfa ang pangalan

CHORUS:
 Em
 Misis Fely Nimfa - Tan - Mercado - dela Cruz - Garcia - Gomez - Ong - Bermudez - Anderson

 AmGAmG
 Lopez - Perez - Tiu - Padilla - Roblez - dela Rosa - Bautista

 AmDG
 Kalimutan mo na nga sila, sa akin ka na magpunta

ADLIB:

e|---------------------------------------------------|
B|-10/12-12-12-12-9h10p8-10----10-10-10-10-8----8----|
G|--------------------------9----------------11---7--|
D|---------------------------------------------------|
A|---------------------------------------------------|
E|---------------------------------------------------|
e|----------------------------------------------------------------------|
B|-12-12-12-12-12-10-8-10-10-10/12----10-10-10-10-10-8----8-8-10-10/12--|
G|---------------------------------9-------------------11---------------|
D|----------------------------------------------------------------------|
A|----------------------------------------------------------------------|
E|----------------------------------------------------------------------|
e|-10-10-10-10-10-10-10-8--8-8-8-8-8-10-8-----|
B|----------------------------------------12--|
G|--------------------------------------------|
D|--------------------------------------------|
A|--------------------------------------------|
E|--------------------------------------------|
e|---------------------------------------------------------------|
B|-10/12-12-12-12-12-10-8-8h10-10-12----10-10-10-10-12-10-10~-8--|
G|-----------------------------------9---------------------------|
D|---------------------------------------------------------------|
A|---------------------------------------------------------------|
E|---------------------------------------------------------------|


CHORUS:
 Em
 Misis Fely Nimfa - Tan - Mercado - dela Cruz - Garcia - Gomez - Ong - Bermudez - Anderson

 AmGAmG
 Lopez - Perez - Tiu - Padilla - Roblez - dela Rosa - Bautista

 AmDG
 Wag nan maghanap ng iba, sa akin ka liligaya
Am D G (pause) D~
Kung sa akin ka nag-uumpisa, di dapat wala nang iba

NITRAM
02:58 PM
12-25-08


Am C D E Em G
variations - click chord images
Transpose chords:
Tuning:
Cool service:
View: Size:
A  A  A
Rating:
Layout:
  • Currently 2.7/5 Stars.
  • 1
  • 2
  • 3
  • 4
  • 5
 
Accuracy:
  • Currently 3/5 Stars.
  • 1
  • 2
  • 3
  • 4
  • 5
 
click stars to rate
Chordie recommends:
Get acoustic guitar lessons and electric guitar lessons at JamPlay.com
Songbook:
Login to add this song to your songbook
Support the artist
Preview/buy this song
MSN Music
Why this non-profit ad?

 
login to add comments/video/corrections