Chordie logo


Awit Ng Barkada   Itchyworms



 
 
 Song Title:Awit ng Barkada
 Artist:Itchyworms
 Tabbed by:micahz
 Album:kami nAPO muna
 
 :Awit ng Barkada Tab:
 
 Intro:
 e-----7---7---7---7--------7---7---7---7---|
 b---9---7---9---7-----7--9---7---9---7-----|
 g-------------------9----------------------|
 d------------------------------------------|
 a------------------------------------------|
 e------------------------------------------|
 Verse:
 e----------7---7---7---7--------7---7---7---7---|
 b-----7--9---7---9---7-----7--9---7---9---7-----|
 g---9--------------------9----------------------|
 d-----------------------------------------------|
 a-----------------------------------------------|
 e-----------------------------------------------|
 Continuation:
 e-----------------------------------------|
 b-----5---5---5---5---5---5---5---5---5---|
 g---6---4---6---4---4---6---4---6---4-----|
 d-----------------------------------------|
 a-----------------------------------------|
 e-----------------------------------------|
 End of verse:
 e-----7---7---7---7--------7---7---7-9---|
 b---9---7---9---7-----7--9---7---9---9---|
 g-------------------9--------------------|
 d----------------------------------------|
 a----------------------------------------|
 e----------------------------------------|
 [Chorus]
 [Intro]
 [Verse]
 [Chorus]
 [Verse]
 [Chorus 1 step higher]
 
 Outro:(intro 1 step higher)
 e----8---8----8---8----------8---8----8---8-|
 b-10---8---10---8------8--10---8---10---8---|
 g-------------------10----------------------|
 d-------------------------------------------|
 a-------------------------------------------|
 e-------------------------------------------|
 
 e-----------------------------------|
 b-----------------------------------|
 g-------------12-14/12----12-12/14--|
 d-------12-15----------15-----------|
 a-12-15-----------------------------|
 e-----------------------------------|

 e--------------------------------------|
 b----------------------------13/15/13--|
 g-------------12-14/12----14-----------|
 d-------12-15----------15--------------|
 a-12-15--------------------------------|
 e--------------------------------------|

 e--------------------------|
 b--------------------------|
 g-------------12-14/12-----|
 d-------12-15----------15--|
 a-12-15--------------------|
 e--------------------------|
 
 e-------------------------.---------------------------------|
 b-------------------------.---------------------------------|
 g-------------12-14/12----.-12/14-12-10-12-14--12-10-12-10--|
 d-------12-15----------15-.---------------------------------|
 a-12-15-------------------.---------------------------------|
 e-------------------------.---------------------------------|

 post na lang kaung comment...
 frienster users.....add nyo ko...j_lipio@yahoo.com
 pm nyo ko kung mganda....




  
  
 


Important: The song above is NOT stored on the Chordie server. The original song is hosted at www.guitaretab.com. Chordie works as a search engine and provides on-the-fly formatting. Chordie does not index songs against artists/composers will. To remove this song please click here.

This song is displayed as text-only. Transposing and tuning is only available for chordpro-songs.

Login - add to songbook

Rating click stars to rate

Layout
Accuracy

SHARE PAGE  




You need to log in to post comments