"yes"; ?> Ache by James Carrington - guitar chords, guitar tabs and lyrics - chordie
----------------

----------------

 Fmaj7CEmAm
eb--x---x----x----x---x---x--x---x----x--x--x----0---0--0---|
Bb--1---1----1----1---1---1--1---1----0--3--1----1---0--1---|
Gb--2---h2---0----0---0---0--0---0----0--0--0----2---2--2---|
Db--3---3----3----2---h2--0--h2--0----2--2--2----2---2--2---|
Ab--0---0----0----3---3---3--3---3----2--2--2----0---0--0---|
Eb--x---x----x----x---x---x--x---x----x--x--x----x---x--x---|


 Fmaj7CG
eb--x---x----x----x---x----x---x-----x--0---|
Bb--1---1----1----1---1----1---1-----3--3---|
Gb--2---h2---0----0---0----0---0-----0--0---|
Db--3---3----3----2---h2---0---h2----0--0---|
Ab--0---0----0----3---3----3---3-----2--2---|
Eb--x---x----x----x---x----x---x-----3--3---|
------------------

prechorus 2nd riff
------------------


Dm (bar) Am (bar) Fmaj7 C
eb--5---5---5----5---0--5----x---x---x----0---0----|
Bb--6---5---6----5---0--5----1---1---1----1---1----|
Gb--7---7---7----5---0--5----2---0---2----0---0----|
Db--7---7---7----7---7--7----3---3---3----2---h2---|
Ab--5---5---5----7---7--7----0---0---0----3---3----|
Eb--5---5---5----5---0--5----x---x---x----x---x----|


Dm (bar) Am (bar) G (bar)
eb--5---5---5----5---0--5----7---8---7----|
Bb--6---5---6----5---0--5----8---8---8----|
Gb--7---7---7----5---0--5----7---7---7----|
Db--7---7---7----7---7--7----0---0---0----|
Ab--5---5---5----7---7--7----x---x---x----|
Eb--5---5---5----5---0--5----x---x---x----|


remember if you are playin with 2 guitars let the 1st one play open chords and the 2nd
play all the bar chords...in unison..

V1
isn't is strange
the way things can change
the life that you lead
turns on it's head >>(bar chord...G)
suddenly someone
means more than you felt before
house on it's yard turns into a home...>>(bar chord...G)

Prechorus
 DmAm
  i'm sorry but i meant to say
 Fmaj7C
  many things along the way
Dm Am G >>(bar chord)
(small pause) so this one's for you

Chorus 2x

 Fmaj7C
have i told you i ache
 DmAm
have i tolddd you i ache
 Fmaj7C
have i told you i acheee
G >> (barchord...has to be the bar chord...listen to the song)
for you

<1st riff>

Verse 2 (continue with 1st riff) (piano comes in)

the time that it took
writing words in my book
seems to have broken in half
the gate that i shut
last time i got hurt
seems to have opened itself

Prechorus (2nd riff all the way)

oh the world is spinning now
tryin to catch me up
tellin me to appreciate
here and now >>(G bar chord)

i'm sorry but i meant to say
many things along the way
so this one's for you >>(G)

Chorus...3x (Strum Hard!!), WITH GREAT HARMONIZING!!

h means hammer on...

end with 1st riff...2x


Am C Dm Em Fmaj7 G
variations - click chord images
Transpose chords:
Tuning:
Cool service:
View: Size:
A  A  A
Rating:
Layout:
  • Currently 3/5 Stars.
  • 1
  • 2
  • 3
  • 4
  • 5
 
Accuracy:
  • Currently 2.9/5 Stars.
  • 1
  • 2
  • 3
  • 4
  • 5
 
click stars to rate
Chordie recommends:
Learn to play guitar with video-based, online guitar lessons at JamPlay.com
Songbook:
Login to add this song to your songbook
Support the artist
Preview/buy this song
MSN Music
Why this non-profit ad?

 
login to add comments/video/corrections

toadocean (report comment to admin):
Try capo IV.

Cadd9 to G to G/F# to Em5 Verse
Prechorus Am to Em to C to G and Am to Em to D
Chorus C to G to D to Em to C to G to D...

:)