Chordie logo


This Road   Jars Of Clay










Date: April 2, 2001



Song   : This Road
Artist : Jars Of Clay

Transcribed By: Jeff Rybczynski, NOsublimeFX@hotmail.com

Intro:

    E  |   F#  |   A  |  G#   |  F#/ G# \ F#  |  E  | D# / E /F# | E   |

e|--0--|---0---|---0--|---0---|---0-----------|--0--|--0---------|--0--|
B|--0--|---0---|---0--|---0---|---0-----------|--0--|--0---------|--0--|
G|--9--|--11---|--14--|--13---|--11/-13-\-11--|--9--|--8/-9/-11--|--9--|
D|--9--|--11---|--14--|--13---|--11/-13-\-11--|--9--|--8/-9/-11--|--9--|
A|--7--|---9---|--12--|--11---|---9/-11-\--9--|--7--|--6/-7/--9--|--7--|
E|--0--|---0---|---0--|---0---|---0/--0-\--0--|--0--|--0/-0/--9--|--0--|


    E  |   F#  |   A  |  G#   |  C# |  B  |  E  |

e|--0--|---0---|---0--|---0---|--0--|--0--|--0--|
B|--0--|---0---|---0--|---0---|--5--|--0--|--0--|
G|--9--|--11---|--14--|--13---|--6--|--4--|--9--|
D|--9--|--11---|--14--|--13---|--6--|--4--|--9--|
A|--7--|---9---|--12--|--11---|--4--|--2--|--7--|
E|--0--|---0---|---0--|---0---|--0--|--0--|--0--|


Versus:
     (E)          |  E  | (E)           |  E  | (E)             |         E  |

e|----------------|--0--|---------------|--0--|-----------------|---------0--|
B|----------------|--0--|---------------|--0--|-----------------|---------0--|
G|-------------6--|--9--|----6----------|--9--|-----------------|---------9--|
D|-------6-9------|--9--|--9---9-6---6--|--6--|------6-9-6------|----6----9--|
A|--7-7-----------|--7--|----------9----|--7--|--7-9-------9-7--|--9---9--7--|
E|----------------|--0--|---------------|--0--|-----------------|---------0--|


Chourus:
    A  |  E  |  A  |  E  |  A  |  C# B  |  C# |  B  E  |

e|--0--|--0--|--0--|--0--|--0--|--0--0--|--0--|--0--0--|
B|--0--|--0--|--0--|--0--|--0--|--5--0--|--5--|--0--0--|
G|--6--|--9--|--6--|--9--|--6--|--6--4--|--6--|--4--9--|
D|--7--|--9--|--7--|--9--|--7--|--6--4--|--6--|--4--9--|
A|--7--|--7--|--7--|--7--|--7--|--4--2--|--4--|--2--7--|
E|--0--|--0--|--0--|--0--|--0--|--0--0--|--0--|--0--0--|

Outro:

    E       |   F#    |   A  |  G#   |  C# |  B  |  E  |  E  |

e|--0-------|---0-----|---0--|---0---|--0--|--0--|--0--|--0--|
B|--0-------|---0-----|---0--|---0---|--5--|--0--|--0--|--0--|
G|--9-------|--11-----|--14--|--13---|--6--|--4--|--9--|--9--|
D|--9-------|--11-----|--14--|--13---|--6--|--4--|--9--|--9--|
A|--7--6-7--|---9--7--|--12--|--11---|--4--|--2--|--7--|--7--|


Important: The song above is NOT stored on the Chordie server. The original song is hosted at www.guitaretab.com. Chordie works as a search engine and provides on-the-fly formatting. Chordie does not index songs against artists/composers will. To remove this song please click here.

This song is displayed as text-only. Transposing and tuning is only available for chordpro-songs.

Login - add to songbook

Rating click stars to rate

Layout
Accuracy

SHARE PAGE  




You need to log in to post comments