Theyll Know We Are Christians

Jars Of Clay

E----------------------------------|

B----------------------------------|
G----10------10-----10----10-------|
D-------12------12----12----12-----|
A-12-------12-----12----12---------|
E----------------------------------|
E--------------------------------------|
B--------------------------------------|
G---3---3---3----3---------------------|
D--5---5---5----5----------------------|
-A-5---5---5----5----------------------|
E--------------------------------------|

 Dm
We are one in the Spirit
 Gm
We are one in the Lord
 Dm
We are one in the Spirit
 Gm
We are one in the Lord
 DmGm
 And we pray that our unity may one day be restored
 BbDm
 And they'll know we are Christians by our love, by our love
 GmDm
They will know we are Christians by our love

Guitar:
 DmDm
 Banjo:             
E----------------------------------|
B----------------------------------|
G----10------10-----10----10-------|
D-------12------12----12----12-----|
A-12-------12-----12----12---------|
E----------------------------------|

Guitar:
 GmDm
 Banjo:             
E--------------------------------------|
B--------------------------------------|
G---3---3---3----3---------------------|
D--5---5---5----5----------------------|
-A-5---5---5----5----------------------|
E--------------------------------------|

 Dm
We will work with each other
 Gm
We will work side by side
 Dm
We will work with each other
 Gm
We will work side by side
 Dm
And we'll guard each mans dignity
 Gm
And sing each mans pride
 BbDm
 And they'll know we are Christians by our love by our love
 GmDm
Yea they'll know we are Christians by our love

Guitar:
 DmDm
 Banjo:             
E----------------------------------|
B----------------------------------|
G----10------10-----10----10-------|
D-------12------12----12----12-----|
A-12-------12-----12----12---------|
E----------------------------------|

Guitar:
 GmDm
 Banjo:             
E--------------------------------------|
B--------------------------------------|
G---3---3---3----3---------------------|
D--5---5---5----5----------------------|
-A-5---5---5----5----------------------|
E--------------------------------------|


God Bless,
Byron


Bb Dm Gm
variations - click chord images
Transpose chords:
Tuning:
Cool service:
View: Size:
A  A  A
Rating:
Layout:
  • Currently 0/5 Stars.
  • 1
  • 2
  • 3
  • 4
  • 5
 
Accuracy:
  • Currently 0/5 Stars.
  • 1
  • 2
  • 3
  • 4
  • 5
 
click stars to rate
Chordie recommends:
Get acoustic guitar lessons and electric guitar lessons at JamPlay.com
Songbook:
Login to add this song to your songbook
Support the artist
Preview/buy this song
MSN Music
Why this non-profit ad?

 
login to add comments/video/corrections