Guitar Tabs, Chords and Lyrics


Hey Love   Jason Mraz



Hey Love
Standard Tuning
No Capo

e--------------------------------------------------|
b----4---------4----------7----------7-------------|
g-------6---------6-------8--8----------8----------|
d----6--6------6--6----------8-------8--8----------|
a-4---------4--------------------------------------|
E----------------------7---------7-----------------|

e--------------------------------------------------|
b--------------------------------------------------|
g----4--3------4--3--------6---6-------5--5--------|
d----4--4------4--4--------6---6-------6--6--------|
a-2---------2--------------------------------------|


Important: The song above is NOT stored on the Chordie server. The original song is hosted at www.guitaretab.com. Chordie works as a search engine and provides on-the-fly formatting. Chordie does not index songs against artists'/composers' will. To remove this song please click here.

This song is displayed as text-only. Transposing and tuning is only available for chordpro-songs.

Login - add to songbook

Rating click stars to rate

Layout
Accuracy

SHARE PAGE  




You need to log in to post comments