Accident Prone

Jawbreaker


Artist: Jawbreaker Song: Accident Prone Tabbed by: Eric Kinder (admin@etrusitive.net)
Here is the breakdown in the middle of Accident Prone. There are seven guitar layers in actual song, so this won't be exactly right, but it sounds very close to me. Also, the are probably a little bit off, but you can figure them out pretty easily by listening to the song.
* = Let ring b = Bend
--------------------------------| --------------------------------| 9*--6*--8*--6*--9*--8*--11*-9*--| --------------------------------| 7*--4*--6*--4*--7*--6*--9*--7*--| --------------------------------|
---------------------------------| ---------------------------------| 6-66668-4-4444-8-8888b6-6666-666-| ---------------------------------| 4-44446-2-2222-6-6666b4-4444-444-| ---------------------------------|
---------------------------------| ---------------------------------| 8-4-4444-8-8888-6-6666----8-8888-| ---------------------------------| 6-2-2222-6-6666-4-4444----6-6666-| ---------------------------------|
---------------------------------| ---------------------------------|
9-9999-111111-139-9999----111111-| ---------------------------------| 7-7777-9-9999-117-7777----9-9999-| ---------------------------------|
---------------------------------| ---------------------------------| 131313-141414-161616----8-888888-| ---------------------------------| 111111-121212-141414----6-666666-| ---------------------------------|
--------------------------------| --------------------------------| --------------------------------| 7-777777-6-666666-7-9-2-222222--| --------------------------------| 5-555555-4-444444-5-7-0-000000--|
----------------------------------| ----------------------------------| ----------------------------------| 6-666666-7-9-11119-9-4-6-7-9-1113-| ----------------------------------| 4-444444-5-7-9-9-7-7-2-4-5-7-9-11-|
----- ----- ----- 14-16 ----- 12-14
And then it goes back to the chorus. The tab makes it look more difficult than it really it's actually pretty easy to play.





























variations - click chord images
Transpose chords:
Tuning:
Cool service:
View: Size:
A  A  A
Rating:
Layout:
  • Currently 0/5 Stars.
  • 1
  • 2
  • 3
  • 4
  • 5
 
Accuracy:
  • Currently 1/5 Stars.
  • 1
  • 2
  • 3
  • 4
  • 5
 
click stars to rate
Chordie recommends:
Check out these online guitar lessons
Songbook:
Login to add this song to your songbook
Support the artist
Preview/buy this song
MSN Music
Why this non-profit ad?

 
login to add comments/video/corrections