Chordie logo


Ye Qu   Jay Chou



well..i got this song myself...i think tis song is more nice to hear...and easy to 
follow the tab to play

recommended guitar to use:classical guitar
this song might have some changes..
 slide down :/
 slide up   :\
intro
E]-----------------------11/13-13-13-11---11------|
B]---------------------13---------------14--------|
G]-10-12-13-13-13-13-12---------------------13----|
D]------------------------------------------------|
A]------------------------------------------------|
E]------------------------------------------------|


E]------------------------------------------------|
B]14-14-14-14\13p-13-11-11------------------------|
G]------------------------13-12-13-13-12----------|
D]------------------------------------------------|
A]------------------------------------------------|
E]------------------------------------------------|

E]-----------------------11/13-13-13-11---11------|
B]---------------------13---------------14--------|
G]-10-12-13-13-13-13-12---------------------13----|
D]------------------------------------------------|
A]------------------------------------------------|
E]------------------------------------------------|

E]------------------------------------------------|
B]-14-14-14-14\13p-13-11-11-12-9------------------|
G]------------------------------------------------|
D]------------------------------------------------|
A]------------------------------------------------|
E]------------------------------------------------|

chorus:(piano part translate to guitar)(plucking)
Fm              D#            C#              Cm           Bdm
E]-----------|  |------------|  |-----------| |---------| |-------|
B]9--------9-|  |-8------8---|  |--6------6-| |-4-----4-| |2------|
G]----10-----|  |----8-------|  |------6----| |----3----| |----3--|
D]--10-------|  |---8--------|  |----6------| |---6-----| |---3---|
A]8------8---|  |-6---6------|  |--4----4---| |-3----3--| |1------|
E]-----------|  |------------|  |-----------| |---------| |-------|

 C
E]----------|
B]-1------1-|
G]----0-----|
D]---2------|
A]-3----3---|
E]----------|

after chorus:

E]---------------------------------------------------------|
B]-6-6/8/9--11-9-9\4p--12-12-12-10\9p----9/10p-------------|
G]------------------------------------11--------11-9-9/11p-|
D]-6-6/8/10---10-9\4p--------------------------------------|
A]---------------------------------------------------------|
E]---------------------------------------------------------|

E]---------------------------------------------------------|
B]-6-6/8/9--11-9-9\4p--12-12-12-10\9p-9-10-----------------|
G]-----------------------------------------9/11p-----------|
D]-6-6/8/10---10-9\4p--------------------------------------|
A]---------------------------------------------------------|
E]---------------------------------------------------------|

ENDING:
E]--------------------------------------|
B]--------------------------------------|
G]------------------5/6-6-5-------------|
D]--------5-6-6/8-6---------8-6-8/10-10-|
A]6/8-8-6-----------6-------------------|
E]--------------------------------------|

E]-----------------------------------------|
B]-----------------------------------------|
G]-------------------------6-6-5-3-3-3/5---|
D]--------------5-6-6/8-6----------------6-|
A]----6-6/8-8-6-----------6----------------|
E]-6/8-------------------------------------|



Important: The song above is NOT stored on the Chordie server. The original song is hosted at www.guitaretab.com. Chordie works as a search engine and provides on-the-fly formatting. Chordie does not index songs against artists/composers will. To remove this song please click here.

This song is displayed as text-only. Transposing and tuning is only available for chordpro-songs.

Login - add to songbook

Rating click stars to rate

Layout
Accuracy

SHARE PAGE  




You need to log in to post comments