Military Strongmen

Jebediah

|------------------|        |------------------------------|

|-4----------------| |------------------------------|
|---5-----5-----5--| |-----5-----5-----5-----5------|
|-----4-6---4-6----| |-4-6---4-6---4-6---4-6---4-6--|
|------------------| |------------------------------|
|------------------| |------------------------------|
|-Bb5--|-C#5--|-G#5--|-F#5--|
|-G#5--|-F#5--|-G#5--|-F#5--|-G#5--|-F#5--|-Bb5--|-Bb5--| x 2
|-C#5--|-G#5--|-Bb5--|-C#5--| x 6
|-Bb5--|-C#5--|
e------------------------|
B--4---------------------|
G----5------5-----5------|
D------4-6----4-6--------|
A------------------------|
E------------------------|

 Bb/FC#G#F#
e--1--|--4--|--4--|--2--|--|
B--1--|--4--|--4--|--2--|--|
G--3--|--6--|--5--|--3--|--|
D--3--|--6--|--6--|--4--|--|
A--1--|--4--|--6--|--4--|--|
E--1--|--4--|--4--|--2--|--|


That?s played for the verse and the chorus

VERSE
I'm on parade, you don't say
Why can't you see that
Keeping my feelings at bay
Why can't you see that, when

CHORUS
When you're around
You just get me down
I'm better off without you

VERSE
All of the years add up to
Why can't you see that
Something has happened to you
Why can't you see that, when

CHORUS

 G#F#
   It's not me
 G#F#
   It can't be

 G#F#Bb
   I'd rather leave

 G#F#
   Its getting hard
 G#F#
   To be a part
 G#F#Bb
   Of what is around

 C#G#BbC#

 C#G#BbC#
 Is this the situation of the time?
 C#G#BbC#
 If so then you can have yours I want mine 
 C#G#BbC#
 I know there's something better you could be             
 C#G#BbC#
 Now I am past caring completely   

CHORUS


Bb Bb/F C# F# G#
variations - click chord images
Transpose chords:
Tuning:
Cool service:
View: Size:
A  A  A
Rating:
Layout:
  • Currently 2.5/5 Stars.
  • 1
  • 2
  • 3
  • 4
  • 5
 
Accuracy:
  • Currently 3/5 Stars.
  • 1
  • 2
  • 3
  • 4
  • 5
 
click stars to rate
Chordie recommends:
Get acoustic guitar lessons and electric guitar lessons at JamPlay.com
Songbook:
Login to add this song to your songbook
Support the artist
Preview/buy this song
MSN Music
Why this non-profit ad?

 
login to add comments/video/corrections