Season In Hell Fire Suite

John Cafferty

 AGA
E G A      A  G*      A
 AGA
LEAD GUITAR PLAYS THIS DURING INTRO:
e|------------------------------------------------------------|
B|--10--10/16b-------10--15------16B--13--15--13--10----------|
G|------------------------------------------------------------|
D|------------------------------------------------------------|
A|------------------------------------------------------------|
E|------------------------------------------------------------|
e|-----------------------------------------------------------------|
B|--10--12--13--13------10--12--13--12--10--12b----12/10---10------|
G|-----------------------------------------------------------------|
D|-----------------------------------------------------------------|
A|-----------------------------------------------------------------|
E|-----------------------------------------------------------------|


NOTE: Listen carefully to the song. You will hear the way
this sounds. I tried to tab it out to make it easy to
play as chords arranged for guitar instead of guitar
and Bass guitar.One guitarist can play this as it is
just a bass run when switching from the G chord to
the A chord. Mainly, listen and you will be able to
do it. When you see the G* play the run.

G* A G*

                E --3-----------------3------------|
                B ---------------2-----------------|
                G ---------------2-----------------|
                D ---------------2-----------------|
                A --2--------0--------2---------0--|
                E --3--0--3-----------3---0--3-----|


VERSE:
E G A A G* A
See the writing on the wall
G* A
Ivory tower's bound to fall
G* A
Voices whisper in the wind
G*
I can hear them calling
 FG
Love is a fire, burning
 AEGA
And I want to burn        

VERSE:
A G* A
Darkest hour before the dawn
G* A
Times we know will soon be gone
G* A
Flames of freedom fill the air
G*
I can hear them calling
 FG
Love is a fire, burning
 AEGA
And I want to burn        

A G* A G*
Fire Fire
 FG
Love is a fire, burning
 AEGA
And I want to burn         

A G* A G*
Fire Fire
 FG
Love is a fire, burning
 A
And I want to burn

THEN PLAY THE FOLLOWING CHORDS:

 DEABCDE
THEN

 G
 C
 Can you see the light
 CF
 Can you hear the sound
 G
Can you feel this whole world turning around'

(REPEAT TO FADE OUT)


A B C D E F G
variations - click chord images
Transpose chords:
Tuning:
Cool service:
View: Size:
A  A  A
Rating:
Layout:
  • Currently 4.2/5 Stars.
  • 1
  • 2
  • 3
  • 4
  • 5
 
Accuracy:
  • Currently 4/5 Stars.
  • 1
  • 2
  • 3
  • 4
  • 5
 
click stars to rate
Chordie recommends:
Learn to play guitar with video-based, online guitar lessons at JamPlay.com
Songbook:
Login to add this song to your songbook
Support the artist
Preview/buy this song
MSN Music
Why this non-profit ad?

 
login to add comments/video/corrections

pronj (report comment to admin):
At the start of the song sounds like the 1st Bass note is E,

but the 2nd Guitar is playing an Em

Instead of Amaj for the verse phrasing use Am;

and after the walkup the progression is

C Am Dm G (I don't think there's an F chord in there)

Great song from John Cafferty