"yes"; ?> Stitched Up by John Mayer - guitar chords, guitar tabs and lyrics - chordie

Stitched Up

John Mayer

----------------------------------------------------------------------------

-------------------------------------------------------------------------------
e|----------------------| e|----------------------|
B|----------------------| B|---2----0----1--------|
G|---6----4----5----6---| G|------------------2---|
D|------------------7---| D|---2----1----0----2---|
A|---7----6----5----0---| A|------------------0---|
E|----------------------| E|----------------------|

 A7GD9G
e|---5---------3----------------------5-----------3---------|
B|---5---------3----------------------5-----------3---------|
G|---6---------4----------------------5-----------4---------|
D|---5---------5----------------------4-----------5---------|
A|---7---------5----------------------5-----------5---------|
E|---5---------3----------------------------------3---------|


“ stitched up, out of my mind, feeling strung out lagging…”

There's a little lick at the end of the chorus before each verse:

e|--0---------------------------------|
B|------3---1-------------------------|
G|--------------2---0-----------------|
D|----------------------3---2---------|
A|------------------------------------|
E|------------------------------------|


There's a cool instrumental bridge with some “Ooohs and Ahhhs” after the second chorus:
 Dm7GCadd9FDm7G
e|---5--------3--------0--------1--------5--------3-------|
B|---6--------3--------3--------1--------6--------3-------|
G|---5--------0--------0--------2--------5--------0-------|
D|---7--------0--------2--------3--------7--------0-------|
A|---5--------2--------3--------3--------5--------2-------|
E|------------3-----------------1-----------------3-------|				




















A7 Cadd9 D9 Dm7 F G
variations - click chord images
Transpose chords:
Tuning:
Cool service:
View: Size:
A  A  A
Rating:
Layout:
  • Currently 3.8/5 Stars.
  • 1
  • 2
  • 3
  • 4
  • 5
 
Accuracy:
  • Currently 3/5 Stars.
  • 1
  • 2
  • 3
  • 4
  • 5
 
click stars to rate
Chordie recommends:
Check out JamPlay.com for online video guitar lessons
Songbook:
Login to add this song to your songbook
Support the artist
Preview/buy this song
MSN Music
Why this non-profit ad?

 
login to add comments/video/corrections