Guitar Tabs, Chords and Lyrics


Little Girl  John Michael Montgomery

E----------------------------------------------|


B----------------------------------------------|


G----------------------------------------------|

D-6-6-6-4-3-1-3-4-3-1-3-4-3-1----1-----3-4-----|
A------------------------------4------4--------|
E----------------------------------------------|
[C]Her parents never took the yo[F]ung girl to chu[C]rch
Never sp[F]oke of his na[C]me, never r[Am]ead her his wo[G]rds
[C]Two non-believers walking l[F]ost in this wo[C]rld
Took their b[F]aby with th[C]em what a s[Am]ad little gi[G]rl
(Verse 2)

[C]Her daddy drank all day and mo[F]mmy did dr[C]ugs
Never wan[F]ted to pl[C]ay, or give ki[Am]sses and hu[G]gs
[C]She'd watch the TV and sit th[F]ere on that co[C]uch
While her m[F]om fell asl[C]eep and her d[Am]addy went o[G]ut

(Chorus 1)

And the dri[Am]nking and the fig[F]hting
[C]Just got worse every ni[G]ght
Behind t[Am]heir couch she'd be hi[F]ding
[C]Oh what a sad little [G]life

(Repeat - Intro)
E----------------------------------------------|
B----------------------------------------------|
G----------------------------------------------|
D-6-6-6-4-3-1-3-4-3-1-3-4-3-1----1-----3-4-----|
A------------------------------4------4--------|
E----------------------------------------------|


(Verse 3)

[C]And like it always does the b[F]ad just got wo[C]rse
With ev[F]ery s[C]lap and ev[Am]ery and cu[G]rse
[C]Until her daddy in a dr[F]unk rage one nig[C]ht
Used a g[F]un on her m[C]om & then t[Am]ook his li[G]fe

(Chorus 2)

And some p[Am]eople from the ci[F]ty
[C]took the girl far a[G]way
to [Am]a new mom and a n[F]ew dad
[C]Kisses and hugs every d[G]ay

(Repeat - Intro)
E----------------------------------------------|
B----------------------------------------------|
G----------------------------------------------|
D-6-6-6-4-3-1-3-4-3-1-3-4-3-1----1-----3-4-----|
A------------------------------4------4--------|
E----------------------------------------------|


[C]First day of Sunday school the t[F]eacher walked [C]in
And a sma[F]ll little g[C]irl stared at a pi[Am]cture of h[G]im
[C]She said I know that man up t[F]here on that c[C]ross
I do[F]n't know his n[C]ame but I [Am]know he got o[G]ff

( Chorus 3 )
Cos he was th[Am]ere in my old hou[F]se
[C]And held me close to his s[G]ide
As I h[Am]id there behind o[F]ur couch
[C]The night that my parents d[G]ied


Repeat Intro - but instead on the last to notes that you play play them slowly.

Important: The song above is NOT stored on the Chordie server. The original song is hosted at www.guitaretab.com. Chordie works as a search engine and provides on-the-fly formatting. Chordie does not index songs against artists'/composers' will. To remove this song please click here.

Text color:
Chord color:
Chord grids: 
Font size:    
Page size: 

Am C F G
variations - click chord images

Login - add to songbook

Transpose chords

Tuning

Rating click stars to rate

Layout
Accuracy

SHARE PAGE  




You need to log in to post comments