Chordie logo

Day Of The Lord   Joy Division



-------------------------------------------------------------------------------
			     Day of the Lords - Joy Division
-------------------------------------------------------------------------------
Tabbed by: Gallagher2006

Tuning: Standard

“Joy Division at their most heavy metal sounding” - Joy Division and
The Making of Unknown Pleasures

Intro 

e|----0-0-0----0--0----0--repeated with bass line--------|
B|----5-5-5----5--5----5---------------------------------|
G|--4--------4------4------------------------------------|
D|-------------------------------------------------------|
A|-------------------------------------------------------|
E|-------------------------------------------------------|

e|---------------------------------------------------------------------------|
B|--5---5---5-5---5---5-5---repeated with bass line--------------------------|
G|----4---4-----4---4-----4--------------------------------------------------|
D|---------------------------------------------------------------------------|
A|---------------------------------------------------------------------------|
E|---------------------------------------------------------------------------|

This is at the end of the intro and is also the Verse riff
e|-------0-------------------------------------------------------------------|
B|-------0-------------------------------------------------------------------|
G|-------x-------------------------------------------------------------------|
D|-------2-------------------------------------------------------------------|
A|-------2--2-----2---2---2---2----------------------------------------------|
E|-0~~~-----0-------3---3---3---3-3-3-3-2-2-2-2------------------------------|
            Palm mute this E5 and listen to song for number of downstrokes

Chorus section (Listen to song for exact number of strums)
e|-------------------------0--------|
B|-------------------------0--------|
G|--7-7-7-7-7-7---5-5-5-5--x--------|
D|--7-7-7-7-7-7---5-5-5-5--2--------|
A|--5-5-5-5-5-5---3-3-3-3--2--------|
E|-------------------------0--------|

Solo: 

Tremelo pick these chords (maybe put a bit of delay in there too! =])

e|--7--6--4------|
B|--8--7--5------|
G|--7--6--4------|
D|---------------|
A|---------------|
E|---------------|

Verse Riff again

Really accentuate that last E chord

e|-------0----------------------------------------0-----|
B|-------0----------------------------------------0-----|
G|-------x----------------------------------------1-----|
D|-------2----------------------------------------2-----|
A|-------2--2-----2---2---2---2-------------------2-----|
E|-0~~~-----0-------3---3---3---3-3-3-3-2-2-2-2---0-----|

There ya go. Rate it high! 



Important: The song above is NOT stored on the Chordie server. The original song is hosted at www.guitaretab.com. Chordie works as a search engine and provides on-the-fly formatting. Chordie does not index songs against artists/composers will. To remove this song please click here.

This song is displayed as text-only. Transposing and tuning is only available for chordpro-songs.

Login - add to songbook

Rating click stars to rate

Layout
Accuracy

SHARE PAGE  

You need to log in to post comments