Guitar Tabs, Chords and Lyrics


Mahiwal  Junoon

e ------------------------------------------------------------------


B ------------------------------------------------------------------


G ----------------2-4-2---------------------------------------------

D --4---4-4--2-4--------2h4---4-4--2-4--------2---------------------
A --------------------------------------0-2-4-----------------------
E ------------------------------------------------------------------
e ------------------------------------------------------------------
B ------------------------------------------------------------------
G --------------------4p2--4p2--4p2---------------------------------
D -----2h4--2h4--2h4------------------------------------------------
A ------------------------------------------------------------------
E ------------------------------------------------------------------
Mahi[F#m]wal mere La[B]jpal mere mujhe [E]par laga
Riff 1
Mera Bhag Jaga
F#m D E F#m Riff 2
Marne se to men na daron
F#m D B F#m Riff 2
Kese Chanab ko par karon
[F#m]Kese Ch[D]anab ko p[E]ar ka[F#m]ron
Mera y[E]ar bhi tu mera[B] piyar bhi tu [D]
Mahiwal mere Lajpal mere mujhe par laga
Mahiwal mere Lajpal mere mujhe par laga
Mera Bhag Jaga.
Lahron men hai jan meri
Sadyon se hai piyas teri
Damsaz bhi tu dildar bhi tu
Mahiwal mere Lajpal mere mujhe par laga
Mahiwal mere Lajpal mere mujhe par laga
Mera Bhag Jaga.
Dob Chali men Dob chali
Iis Jine se Maot bahali
Iis par bhi tu Uos par bhi tu
Mahiwal mere Lajpal mere mujhe par laga
Mahiwal mere Lajpal mere mujhe par laga
Mera Bhag Jaga.

Tabbed by: The Unaffectionate Nomster (TUN)
Any criticisms, corrections, and/or suggestions are welcome.
Please e-mail me at: nomibaby@hotmail.com.

Important: The song above is NOT stored on the Chordie server. The original song is hosted at www.guitaretab.com. Chordie works as a search engine and provides on-the-fly formatting. Chordie does not index songs against artists/composers will. To remove this song please click here.

Text color:
Chord color:
Chord grids: 
Font size:    
Page size: 

B D E F#m
variations - click chord images

Login - add to songbook

Transpose chords

Tuning

Rating click stars to rate

Layout
Accuracy

SHARE PAGE  




You need to log in to post comments