Guitar Tabs, Chords and Lyrics


Table 19   Kid Dynamite



-------------------------------------------------------------------------------
                               TABLE 19 - Kid Dynamite
-------------------------------------------------------------------------------


Intro
e|---------------------------------------------------------------------------|
B|---------------------------------------------------------------------------|
G|----4-----7-----9--9--11---palm mute 2nd time------------------------------|
D|-2--4--4--7--7--9--x--x----------------------------------------------------|
A|-2--2--4--5--7--7--7--9----------------------------------------------------|
E|-0-----2-----5-------------------------------------------------------------|

Verse
e|---------------------------------------------------------------------------|
B|---------------------------------------------------------------------------|
G|--4-----7-----9------4-----7-----9--4-----7--------------------------------|
D|--4--4--7--7--9--2---4--4--7--7--x--4--4--7--7--2-------------and then it--|
A|--2--4--5--7--7--2---2--4--5--7--7--2--4--5--7--2

Important: The song above is NOT stored on the Chordie server. The original song is hosted at www.guitaretab.com. Chordie works as a search engine and provides on-the-fly formatting. Chordie does not index songs against artists'/composers' will. To remove this song please click here.

This song is displayed as text-only. Transposing and tuning is only available for chordpro-songs.

Login - add to songbook

Rating click stars to rate

Layout
Accuracy

SHARE PAGE  




You need to log in to post comments