""; ?> La Playa by La Oreja De Van Gogh - guitar chords, guitar tabs and lyrics - chordie
 AE
E|------------------------------------------------------|
A|------------------------------------------------------|
D|----------------6---7-6-------------------------------|
G|-7------7-9----7---7----9-7-6-----------7--9------6/7-|
B|------7-------7---7-----------9-7-----7-------5/7-----|
E|------------------------------------------------------|


 AE
No si aun me recuerdas,
 F#mD
nos conocimos al tiempo,
 A
tú, el mar y el cielo
 E
y quien me trajo a ti.

 AE
Abrazaste mis abrazos,
 F#mD
 vigilando aquel momento
 A
aunque fuera el primero
 E
y lo guardara para mi.

 DAC#mF#m
 Si pudiera volver a nacer
 DAC#mF#m
 te vería cada día amanecer,
 DDmAE
 sonriendo como cada vez,
 DEA
 como aquella vez.

 D
Te voy a escribir
 A
la canción más bonita del mundo,
 C#m
voy a capturar nuestra historia
 F#m
en tan sólo un segundo,
 DA
y un día verás que este loco
 E
de poco se olvida,
 DA
por mucho que pasen los años
 E
de largo en su vida.

E|------------------------------------------------------|
A|------------------------------------------------------|
D|----------------6---7-6-------------------------------|
G|-7------7-9----7---7----9-7-6-----------7--9------6/7-|
B|------7-------7---7-----------9-7-----7-------5/7-----|
E|------------------------------------------------------|


 AE
El día de la despedida
 F#mD
de esta playa de mi vida,
 A
te hice una promesa:
 E
volverte a ver así.

 AE
Más de cincuenta veranos
 F#mD
hace hoy que no nos vemos
 A
ni tú, ni el mar, ni el cielo
 E
ni quien me trajo a ti.

Re La Do# Fa#m
 DAC#mF#m
 Si pudiera volver a nacer
 DAC#mF#m
 te vería cada día amanecer,
 DDmAE
 sonriendo como cada vez,
 DEA
 como aquella vez.

 D
Te voy a escribir
 A
la canción más bonita del mundo,
 C#m
voy a capturar nuestra historia
 F#m
en tan sólo un segundo,
 DA
y un día verás que este loco
 E
de poco se olvida,
 DA
por mucho que pasen los años
 E
de largo en su vida.

 D
Y te voy a escribir la canción
 A
más bonita del mundo,
 C#m
 voy a capturar nuestra historia
 F#m
en tan sólo un segundo,
 DA
y un día verás que este loco
 E
de poco se olvida,
 DA
 por mucho que pasen los años
 E
por mucho que pasen los años
 DA
de largo en su vida,        
 E
 su vida

 DEA
 su vida.

(: hope u like it..

A C#m D Dm E F#m
variations - click chord images
Transpose chords:
Tuning:
Cool service:
View: Size:
A  A  A
Rating:
Layout:
  • Currently 2.8/5 Stars.
  • 1
  • 2
  • 3
  • 4
  • 5
 
Accuracy:
  • Currently 3/5 Stars.
  • 1
  • 2
  • 3
  • 4
  • 5
 
click stars to rate
Chordie recommends:
Learn how to play guitar at JamPlay.com
Songbook:
Login to add this song to your songbook
Support the artist
Preview/buy this song
MSN Music
Why this non-profit ad?

 
login to add comments/video/corrections