1---5---0---3----2----2------------------|

2---5---2---3----2----3------------------|
3---6---2---4----2----4------------------|
4---7---2---5----4----4------------------|
5---7---0---5----4----2------------------|
6---5---0---3----2----0------------------|
1--------------------------------|
2----55---5---------33---3-------|
3----66---6---------44---4-------| x4 for intro
4--------------------------------| X4 for verse below
5-------7--------------5---------|
6--5--------5s3---3--------3s5---|

 CA
1------------------------------|
2---11---1--------22---2-------|
3---00---0--------22---2-------|
4------------------------------|  X3  for verse below
5-3------------0---------------|
6------3-------------0---------|


Necesidad de unirme al ghetto
De los que apelan a besarte
En escondites bien secretos

3 riff

 D
1---2-2-2-2-2-2-2-2--|
2---3-3-3-3-3-3-3-3--|
3---------------2-2--| X1
4-0------------------|
5--------------------|
6--------------------|


Con la locura como estandarte.

(4) strumming

 Fm#Bm
 No te permito que me saques todo el hambre      play it with the notes
Fm# Bm i mentioned above
Que me acostumbres a atar todo con alambre so you can cut off the sound
G A*
Me das mil canciones de buena madera.
 GGG
1------------------------------------------------------3---|
2------------77-------77--------77---------77-----33---3---|
3------------77-------77--------77---------77-----44---4---|
4-------0----------------------------------------------5---|
5-----------------4------------------------------------5---|
6---------------------------7---------5---------3------3---|

Cualquier estación para mi es primavera con vos…

 GA
 Pero cuando te vas…
 DGA
Me dejas con la más dulce pena matándome adentro
 DGA
y un otoño vacío en el centro que solo se llena
 GA
con un poco más de tú esencia en las venas.

 1
Me pongo goma, me pongo parlanchín
voy rebotando de Argentina hasta Japón
me cuelgo con historias que no tienen fin
y me preocupo por problemas sin solución.

 2
Voy escuchando dancing move,
la sonrisa de oreja a oreja
es un problema de actitud.

 3
y ahora los dejo pensando con esta moraleja

 4
"ponete bien si no hay quien salte y no hay un cobre
que de esta miel mejor que falte y no que sobre"
me das mil canciones de buena madera

cualquiera estación para mi es primavera con vos
pero cuando te vas

me dejas con la más dulce pena matándome adentro
y un otoño vació en el centro que solo se llena
con un poco mas de tu esencia en las venas.

(1)(2)(3) (guitar only)

 4
Que algo tan lindo me haga mal es una pena
me haces poner una de cal veinte de arena
me das mil canciones de buena madera.

cualquiera estación para mi es primavera con vos
pero cuando te vas

me dejas con la mas dulce pena matándome adentro |
y un otoño vació en el centro que solo se llena | X2
con un poco mas de tu esencia en las venas. |

(1) until it finish


A Bm C D G
variations - click chord images
Transpose chords:
Tuning:
Cool service:
View: Size:
A  A  A
Rating:
Layout:
  • Currently 2.8/5 Stars.
  • 1
  • 2
  • 3
  • 4
  • 5
 
Accuracy:
  • Currently 3.2/5 Stars.
  • 1
  • 2
  • 3
  • 4
  • 5
 
click stars to rate
Chordie recommends:
Get acoustic guitar lessons and electric guitar lessons at JamPlay.com
Songbook:
Login to add this song to your songbook
Support the artist
Preview/buy this song
MSN Music
Why this non-profit ad?

 
login to add comments/video/corrections